No Use for a Name

No Use for a Name - Revenge guitar tab

Song: Revenge

Album: Making Friends

Tuning: Standard

Tabber: Hobbesdj

This is a cool song by No Use for a Name that someone asked me to tab.

Intro

(1st Guitar)

---------------------------------------

---------------------------------------

---------------------------------------

------6-------7------------------------

--7---4---4---5------------------------

--5-------2----------------------------E

(2nd Guitar)

---------------------------------------

-1010--99--77--55----------------------

---------------------------------------

---------------------------------------

---------------------------------------

---------------------------------------E

Verse

---------------------------------------

---------------------------------------

---------------------------------------

----6-----7---------6--7777------------

-7--4--4--5------7--4--5555------------

-5-----2---------5---------------------E

Chorus

-----------------------------------------

-----------------------------------------

----------------7777---------------------

----------------5555---------------------

--4444---0000--------7777----------------

--2222---2222--------5555----------------E

During Solo

(1st Guitar) Follows verse

(2nd Guitar)

-----------------------------------------------------------

-----------------------------------------------------------

-----------------------------------------------------------

-7h6(6x)-7-9--11h9(4x)12-11h12-9-11------------------------

-----------------------------------------------------------

-----------------------------------------------------------E

-----------------------------------------------------------

-----------------------------------------------------------

-------------9---------------------------------------------

-9-11v--9h11---11------..........not positive on rest------

------------------11---------coming back for changes-------

-----------------------------------------------------------E

Bridge

---------------------------------------------------------

---------------------------------------------------------

---------------------------------------------------------

--4444--pickslide---7777---------------------------------

--2222--2nd Guitar--5555----7777-6666---4444-------------

----------------------------5555-4444---2222-------------E

The Chorus, Verse, then intro play again after this.

Lyrics for the multi-talented:

Covered up your insecurities with

everything

showing everyone exactly how you think

mad no difference, I can see right

through your best disguise

you look like someone else, it doesn't

matter where you hide

You wanna empty clips on everyone

around

and burn their fortress to the ground

Socializing makes you sick from

drinking everything

and if looks could kill we'd surely

all be dead

maybe sticks of dynamite would solve

your problems now

underneath my feet, was it something

that I said?

You wanna empty clips on

everyone around

and burn their fortress to the ground

Someday soon you'll have your way and

everyone will leave you all alone

you laugh at everyone's mistakes,

trapped inside a mind you call home

You wanna empty clips on

everyone around

and burn their fortress to the ground

Get this song at:  amazon.com sheetmusicplus.com

Share your thoughts

0 Comments found