No Use for a Name

No Use for a Name - Redemption Song bass tab

-----------------------------------------------------------------------

REDEMPTION SONG NO USE FOR A NAME

-----------------------------------------------------------------------

> MEANS STRUM

INTRO

(Normally without bass, just cool to play!)

G]-----------------------------------]

D]-----------------------------------]

A]---0-2---3-7-5-0-2---0-2-5-3-2-0---]x2

E]-3-----3-----------3-------------3-]

VERSE1

G]----------------]

D]----------------]

A]-------3>-2>-0>-]x3

E]-3>-0>----------]

G]----------------]

D]----------------]

A]-------3>-2>-5>-]

E]-3>-0>----------]

CHORUS

G]----------------------------------------------]

D]----------------------------------------------]

A]----3>-5>----3>-5>----3>-5>----3>-5>----3>-5>-]

E]-3>-------3>-------0>-------3>-------3>-------]

VERSE2

G]-------------------------------] (X2)

D]-------------------------------]

A]-------3>-2>-0>-------3>-2>-5>-]

E]-3>-0>----------3>-0>----------]

CHORUS

G]-------------------------------------------------------]

D]-------------------------------------------------------]

A]----3>-5>----3>-5>----3>-5>----3>-5>----3>-5>----3>-5>-]

E]-3>-------3>-------0>-------3>-------3>-------3>-------]

BRIDGE

G]-------------------------------------]

D]-------------------------------------]

A]----3>-5>----3>-5>----3>-5>----3>-5>-]

E]-0>-------0>-------0>-------0>-------]

VERSE2

CHORUS

G]-------------------------------------------------------------------------]

D]-------------------------------------------------------------------------]

A]----3>-5>----3>-5>----3>-5>----3>-5>----3>-5>----3>-5>----3>-5>----3>-5>-]

E]-3>-------3>-------0>-------3>-------3>-------0>-------3>-------3>-------]

OUTRO

G]------------------------------------------------]

D]------------------------------------------------]

A]----3---3-3-3-3-3-3-3-3----3-2-0-0------3-3-3-5-]

E]-0>---0>----------------0>---------3-0>---------]

TABBED BY FUNKEL

Get this song at:  amazon.com sheetmusicplus.com

Share your thoughts

0 Comments found