No Use for a Name

No Use for a Name - Pride guitar tab

-------------------------------------------------------------------------------

PRIDE - No Use For A Name

-------------------------------------------------------------------------------

By: CHENZ (vmarvaso@kent.edu)(http://www.angelfire.com/nv/punksource)

Intro:

(Bass) (Gtr) C G A F G C F

e|---------------------------------------------------------------------------|

B|--------------pm^^^^^^^^^^^^^^^--------------------------------------------|

G|----------------5----------------------------------------------------------|

D|----------------5----5--------7----3----5----------------------------------|

A|----------------3----5--------7----3----5----------------------------------|

E|---------------------3--------5----1----3----------------------------------|

Verse:

C F G E A F G F Gtr2 F G E C G F

e|------------------------------------------------------------------------------|

B|------------------------------------------------------------------------------|

G|-5------------------------------------6-5-3--5-3-1----------------5-----------|

D|-5----3----5----2----7----3----5----3--------------3----5----0----5----5----3-|

A|-3----3----5----2----7----3----5----3--------------3----5----0----3----5----3-|

E|------1----3----0----5----1----3----1--------------1----3----2---------3----1-|

Chorus: Gtr2 kicks in

C G A F C G A F

e|---------------------------------------------------------------------------|

B|------------------------------------pm^^-----------------------------------|

G|-5---------------------5---------------------------------------------------|

D|-5----5----7----3------5----5----7----3------------------------------------|

A|-3----5----7----3------3----5----7----3------------------------------------|

E|------3----5----1-----------3----5----1------------------------------------|

Then repeat intro with pm part 3x, then verse, chorus, solo thingy (not tabbed)

Then Bridge:

F G A D F G A D F G

e|---------------------------------------------------------------------------|

B|-------------------(3x)pm^^^^^^^^^^^^^^^^^^^^^^^^^^^^^^^^^^^---------------|

G|----------------7----------------------7-----------------------------------|

D|-3----5----7----7-------3----5----7----7----3----5-------------------------|

A|-3----5----7----5-------3----5----7----5----3----5-------------------------|

E|-1----3----5------------1----3----5---------1----3-------------------------|

Then first half of verse again and bass outro

===============================================================================

Get this song at:  amazon.com sheetmusicplus.com

Share your thoughts

0 Comments found