No Use for a Name

No Use for a Name - Pride bass tab

--------------------------------*---->

>----*-------*-------*-----4----#----*-------*-------*------1----->

>---2-------4-------2----------4----2-------4-------1------------->

>pre-chorus

>---------------------------------|

>----*-------*--------------------|

>---2-------2--------*-------*----|

>-------------------4-------4-----|

:

# chorus # h=hammer-on h

G-------------------------------------------------------------5---56-|

D-------------------------------66--------------------------66-644---|

A---44-444-433-333-366-666-6------3-44-444-433-333-366-666-6---------|

E---------------------------44-4-------------------------------------|

:

Then play verseX1.5

:

# pre-chorus2 # *=play 7-8X #=play 3-4X >

G----------------------------------------------------------------->continue

D------------*----------------6-4-3--------------------------*---->with last

A----*------4--------*------/6-6-6-4-*-------*-------*------1----->two rows of

E---2---------------4---------------2-------4-------1------------->pre-chorus.

:

# chorus2+bridge # *=play 7-8X #=play 3-4X %=pause h=hammer-on >

G------%%%%%%%%%%%%%%%%%%%%%%%%%------------------------------------>

D------%%%%%%%%%%%%%%%%%%%%%%%%%6---------------------------------->

A---44-%%%%%%%%%%%%%%%%%%%%%%%%%----44-444-433-333-366-666-6-#---#-->

E------%%%%%%%%%%%%%%%%%%%%%%%%%----------------------------4---2--->

>chorus2+bridge s=single note

>--|-----------|2X|----------------|------------s-(11,-not-1+1)-----|

>--|-------------------------*-----|--------------------------------|

>--|-*-------*-------#------4------|-----------11----------4---3---|

>--|2-------4-------6---6646-------|4---------------2---------------|

:

# bridge2 # *=play 8X >

G--11--------------11--------------10------------------------------->

D--111111111111111113131313131313131010101010101010-8---8---6---6--->

A-----------------------------------------------------8---8---6---6->

E------------------------------------------------------------------->

>bridge2

>---------------------------------|

>---------------------------------|

>----*---------------*------------|

>---2---------------4-------------|

:

# verse3 # *=play 7-8X #=play 3-4X h=hammer-on

G--------------------------------------------------------------------|

D----*---------------------------------------*--------------------h--|

A---4--------*-------*-------#---#---*------4--------*--------3---34-|

E-----------4-------4-------6---4---2---------------2-------44-422---|

>>>>>>>>to next page...

:

PRIDE 2/2

:

# outro # h=hammer-on h

G---6--6--6-8--8----8--5--5-6---5---6--6--6-6--6--6-6--6--6---5---566-----|

D----66-66-6-66-6664-66-66-6-888-660-44-44-4-66-66-6-44-44-466-644--6-----|

A-------------------------------------------------------------------------|

E---|-------|-------|-------|------*|-------|-------|-------|-------|-----|

:

Absolutely fantastic lines, although the song isn't their best ones.

Tabbed by Jussi Heinonen 14.03.2002. www.jiihootabs.cjb.net

Taken from The BassMasta -- http://www.tabs-database.com

Get this song at:  amazon.com sheetmusicplus.com

Share your thoughts

0 Comments found