No Use for a Name

No Use for a Name - Power Bitch bass tab

Band: N.U.F.A.N

Song: Power Bitch

Intro: *=strum

G:------------------------|

D:------------------------|

A:----------2-1*----2-----| x8

E:--0*---2-3---------3-2--| (first 2 times no strum)

^= 3-5 times

G:---------------------------------|

D:---------------------------------|

A:--5/7^-5^-7^------1*-2-----------| x2

E:-------------3212------3-2--(0)--|

Verse part 1:

G:---------------------------------------------------|

D:---------------------------------------------------|

A:------------2-----------------------2-------532----| x2

E:--00-0--23----33-3---535---00-0--23---33-3------(0)|

pause

Verse part 2:

G:---------------------------------------|

D:---------------------------------------|

A:--------2----------------2----532------|

E:--0--2-3--3---535-0---2-3--3-------(0)-|

Verse part 1 x4

Verse part 2 x2

Chorus:

G:-------------------------|

D:-------------------------|

A:---------------------5-6-| x4

E:-6-000-6-000---6-3-5--6--|

Link: "i think i'm going insane"

G:-------------------------------------------|

D:-------------------------------------------|

A:-3----4----5----6----7----8----9---10--11--|

E:--00---00---00---00---00---00---00---00----|

Bridge:

G:-------------------------|

D:-------------------------|

A:-------------------------|

E:--0*-3--0-8-0-6xx6xx6xx6-|

verse part 1 x4

verse part 2 x2

Chorus x1

tabbed by Ryan Addinsall (raddinsall@mauimail.com)

with the help of Tom "Goose" Portelli

Get this song at:  amazon.com sheetmusicplus.com

Share your thoughts

0 Comments found