No Use for a Name

No Use for a Name - Permanent Rust guitar tab

-------------------------------------------------------------------------------------------------------------------

PERMANENT RUST - No Use For A Name

-------------------------------------------------------------------------------------------------------------------

By: Jeff Munt

B-|-------------------------------------------------------------------

G-|-------------------------------------------------------------------

D-|-10-9-9-9-10-9-9-9-10-9-9-9-10-12-10-9-9-9-10-9-9-9-10-9-9-9-5-5-5-

A-|--8-7-7-7--8-7-7-7--8-7-7-7--8-10--8-7-7-7--8-7-7-7--8-7-7-7-3-3-3-

E-|-------------------------------------------------------------------

e-|-------------------------------------------------------------------

B-|-------------------------------------------------------------------

G-|-------------------------------------------------------------------

D-|-10-9-9-9-10-9-9-9-10-9-9-9-10-12-10-9-9-9-10-9-9-9-10-9-9-9-5-5-5-

A-|--8-7-7-7--8-7-7-7--8-7-7-7--8-10--8-7-7-7--8-7-7-7--8-7-7-7-3-3-3-

E-|-------------------------------------------------------------------

e-|-------------------------------------------------------------------

B-|-------------------------------------------------------------------

G-|-------------------------------------------------------------------

D-|-10-9-9-9-10-9-9-9-10-9-9-9-10-12-10-9-9-9-10-9-9-9-10-9-9-9-5-5-5-

A-|--8-7-7-7--8-7-7-7--8-7-7-7--8-10--8-7-7-7--8-7-7-7--8-7-7-7-3-3-3-

E-|-------------------------------------------------------------------

e-|----------------------------------------------------------------------|

B-|----------------------------------------------------------------------|

G-|----------------------------------------------------------------------|

D-|-10-9-9-9-10-9-9-9-10-9-9-9-10-12-10-9-9-9-10-9-9-9-10-9-9-9-12-12-12-|

A-|--8-7-7-7--8-7-7-7--8-7-7-7--8-10--8-7-7-7--8-7-7-7--8-7-7-7-10-10-10-|

E-|----------------------------------------------------------------------|

e-|-------------------------------------------------------------

B-|-------------------------------------------------------------

G-|-------------------------------------------------------------

D-|-9-9-7-9-9-7-9-9-7-10-10-10-10-9-9-7-9-9-7-9-9-7-10-10-10-10-

A-|-7-7-5-7-7-5-7-7-5--8--8--8--8-7-7-5-7-7-5-7-7-5--8--8--8--8-

E-|-------------------------------------------------------------

e-|-------------------------------------------------------------

B-|-------------------------------------------------------------

G-|-------------------------------------------------------------

D-|-9-9-7-9-9-7-9-9-7-10-10-10-10-9-9-7-9-9-7-9-9-7-10-10-10-10-

A-|-7-7-5-7-7-5-7-7-5--8--8--8--8-7-7-5-7-7-5-7-7-5--8--8--8--8-

E-|-------------------------------------------------------------

e-|-------------------------------------------------------------|

B-|-------------------------------------------------------------|

G-|-------------------------------------------------------------|

D-|-9-9-7-9-9-7-9-9-7-10-10-10-10-9-9-7-9-9-7-9-9-7-12-12-12-12-|

A-|-7-7-5-7-7-5-7-7-5--8--8--8--8-7-7-5-7-7-5-7-7-5-10-10-10-10-|

E-|-------------------------------------------------------------|

e-|-----------------------------------------------------------------

B-|-----------------------------------------------------------------

G-|-----------------------------------------------------------------

D-|-9-9-9-9-7-7-7-7-4-4-4-4-4-4-4-4-9-9-9-9-7-7-7-7-4-4-4-4-4-4-4-4-

A-|-7-7-7-7-5-5-5-5-2-2-2-2-2-2-2-2-7-7-7-7-5-5-5-5-2-2-2-2-2-2-2-2-

E-|-----------------------------------------------------------------

e-|-------------------------------------------------------------------|

B-|-------------------------------------------------------------------|

G-|-------------------------------------------------------------------|

D-|-----------------10-10-10-10-10-10-10-10---------------------------|

A-|-7-7-7-7-5-5-5-5--8--8--8--8--8--8--8--8-7-7-7-7-5-5-5-5-5-5-5-5-7-|

E-|-5-5-5-5-3-3-3-3-------------------------5-5-5-5-3-3-3-3-3-3-3-3-5-|

e-|---------|---------------------------------|-----------------------

B-|---------|---------------------------------|-----------------------

G-|---------|---------------------------------|-----------------------

D-|---4-5-4-|-9-9-9-9-7-7-7-7-5-5-5-5-5-5-5-5-|-4-4-7-----------7-6-6-

A-|-7-2-3-2-|-7-7-7-7-5-5-5-5-3-3-3-3-3-3-3-3-|-2-2-5-7-4-4-4-4-5-4-4-

E-|-5-------|---------------------------------|-------5-2-2-2-2-------

e-|-----------------------|---------------------------------|

B-|-----------------------|---------------------------------|

G-|-----------------------|---------------------------------|

D-|-4-4-7-----------7-6-6-|-4-4-4-4-2-2-2-2-6-6-6-6---------|

A-|-2-2-5-7-4-4-4-4-5-4-4-|-2-2-2-2-0-0-0-0-4-4-4-4-4-4-4-4-|

E-|-------5-2-2-2-2-------|-------------------------2-2-2-2-|

e-|------------------------------------------|

B-|------------------------------------------|

G-|------------------------------------------|

D-|-5-5-5-5-5-5-5-5-5-5-5-5-5-5-5-5-9-9--9-9-|

A-|-3-3-3-3-3-3-3-3-3-3-3-3-3-3-3-3-7-7--7-7-|

E-|------------------------------------------|

e-|-------------------------------------------------------------------

B-|-------------------------------------------------------------------

G-|-------------------------------------------------------------------

D-|-10-9-9-9-10-9-9-9-10-9-9-9-10-12-10-9-9-9-10-9-9-9-10-9-9-9-5-5-5-

A-|--8-7-7-7--8-7-7-7--8-7-7-7--8-10--8-7-7-7--8-7-7-7--8-7-7-7-3-3-3-

E-|-------------------------------------------------------------------

e-|----------------------------------------------------------------------|

B-|----------------------------------------------------------------------|

G-|----------------------------------------------------------------------|

D-|-10-9-9-9-10-9-9-9-10-9-9-9-10-12-10-9-9-9-10-9-9-9-10-9-9-9-12-12-12-|

A-|--8-7-7-7--8-7-7-7--8-7-7-7--8-10--8-7-7-7--8-7-7-7--8-7-7-7-10-10-10-|

E-|----------------------------------------------------------------------|

e-|-----------------------------------------------------------------

B-|-----------------------------------------------------------------

G-|-----------------------------------------------------------------

D-|-9-9-9-9-7-7-7-7-4-4-4-4-4-4-4-4-9-9-9-9-7-7-7-7-4-4-4-4-4-4-4-4-

A-|-7-7-7-7-5-5-5-5-2-2-2-2-2-2-2-2-7-7-7-7-5-5-5-5-2-2-2-2-2-2-2-2-

E-|-----------------------------------------------------------------

e-|-------------------------------------------------------------------|

B-|-------------------------------------------------------------------|

G-|-------------------------------------------------------------------|

D-|-----------------10-10-10-10-10-10-10-10---------------------------|

A-|-7-7-7-7-5-5-5-5--8--8--8--8--8--8--8--8-7-7-7-7-5-5-5-5-5-5-5-5-7-|

E-|-5-5-5-5-3-3-3-3-------------------------5-5-5-5-3-3-3-3-3-3-3-3-5-|

e-|---------|---------------------------------|-----------------------

B-|---------|---------------------------------|-----------------------

G-|---------|---------------------------------|-----------------------

D-|---4-5-4-|-9-9-9-9-7-7-7-7-5-5-5-5-5-5-5-5-|-4-4-7-----------7-6-6-

A-|-7-2-3-2-|-7-7-7-7-5-5-5-5-3-3-3-3-3-3-3-3-|-2-2-5-7-4-4-4-4-5-4-4-

E-|-5-------|---------------------------------|-------5-2-2-2-2-------

e-|-----------------------|---------------------------------|

B-|-----------------------|---------------------------------|

G-|-----------------------|---------------------------------|

D-|-4-4-7-----------7-6-6-|-4-4-4-4-2-2-2-2-6-6-6-6---------|

A-|-2-2-5-7-4-4-4-4-5-4-4-|-2-2-2-2-0-0-0-0-4-4-4-4-4-4-4-4-|

E-|-------5-2-2-2-2-------|-------------------------2-2-2-2-|

e-|---------------------------------|

B-|---------------------------------|

G-|---------------------------------|

D-|-5-5-5-5-5-5-5-5-5-5-5-5-5-5-5-5-|

A-|-3-3-3-3-3-3-3-3-3-3-3-3-3-3-3-3-|

E-|---------------------------------|

e-|---------------------------------------------------|

B-|---------------------------------------------------|

G-|---------------------------------------------------|

D-|-10-10-10-9-10-10-10-9-10-10-10-9-10-10-10-12-12-7-|

A-|--8--8--8-7--8--8--8-7--8--8--8-7--8--8--8-10-10-5-|

E-|---------------------------------------------------|

e-|-------------------------------------------------------------------

B-|-------------------------------------------------------------------

G-|-------------------------------------------------------------------

D-|-10-9-9-9-10-9-9-9-10-9-9-9-10-12-10-9-9-9-10-9-9-9-10-9-9-9-5-5-5-

A-|--8-7-7-7--8-7-7-7--8-7-7-7--8-10--8-7-7-7--8-7-7-7--8-7-7-7-3-3-3-

E-|-------------------------------------------------------------------

e-|----------------------------------------------------------------------|

B-|----------------------------------------------------------------------|

G-|----------------------------------------------------------------------|

D-|-10-9-9-9-10-9-9-9-10-9-9-9-10-12-10-9-9-9-10-9-9-9-10-9-9-9-12-12-12-|

A-|--8-7-7-7--8-7-7-7--8-7-7-7--8-10--8-7-7-7--8-7-7-7--8-7-7-7-10-10-10-|

E-|----------------------------------------------------------------------|

e-|-----------------------|

B-|-----------------------|

G-|-----------------------|

D-|-10-9-9-9-10-12-10-9-7-|

A-|--8-7-7-7--8-10--8-7-5-|

E-|-----------------------|

=====================================================================

Get this song at:  amazon.com sheetmusicplus.com

Share your thoughts

0 Comments found