No Use for a Name

No Use for a Name - Permanent Rust bass tab

-------------------------------------------------------------

PERMANENT RUST / No Use For A Name

-------------------------------------------------------------

tabbed by Carlos Pino

G-|-------------------------------------------------------------------

D-|-----------------------------------------------------------------------

A-|--8-7-7-7--8-7-7-7--8-7-7-7--8-10--8-7-7-7--8-7-7-7--8-7-7-7-3-3-3-

E-|-------------------------------------------------------------------

G-|-------------------------------------------------------------------

D-|----------------------------------------------------------------------

A-|--8-7-7-7--8-7-7-7--8-7-7-7--8-10--8-7-7-7--8-7-7-7--8-7-7-7-3-3-3-

E-|-------------------------------------------------------------------

G-|-------------------------------------------------------------------

D-|-------------------------------------------------------------------

A-|--8-7-7-7--8-7-7-7--8-7-7-7--8-10--8-7-7-7--8-7-7-7--8-7-7-7-3-3-3-

E-|-------------------------------------------------------------------

G-|----------------------------------------------------------------------

D-|---------------------------------------------------------------------------

A-|--8-7-7-7--8-7-7-7--8-7-7-7--8-10--8-7-7-7--8-7-7-7--8-7-7-7-10-10-10-

E-|----------------------------------------------------------------------

G-|-------------------------------------------------------------

D-|-------------------------------------------------------------------

A-|-7-7-5-7-7-5-7-7-5--8--8--8--8-7-7-5-7-7-5-7-7-5--8--8--8--8-

E-|-------------------------------------------------------------

G-|-------------------------------------------------------------

D-|---------------------------------------------------------------

A-|-7-7-5-7-7-5-7-7-5--8--8--8--8-7-7-5-7-7-5-7-7-5--8--8--8--8-

E-|-------------------------------------------------------------

G-|-------------------------------------------------------------

D-|-------------------------------------------------------------

A-|-7-7-5-7-7-5-7-7-5--8--8--8--8-7-7-5-7-7-5-7-7-5-10-10-10-10-

E-|-------------------------------------------------------------

G-|-----------------------------------------------------------------

D-|------------------------------------------------------------------

A-|-7-7-7-7-5-5-5-5-2-2-2-2-2-2-2-2-7-7-7-7-5-5-5-5-2-2-2-2-2-2-2-2-

E-|-----------------------------------------------------------------

G-|-------------------------------------------------------------------

D-|-------------------------------------------------------------------

A-|------------------------8--8--8--8--8--8--8--8---------------------------

E-|-5-5-5-5-3-3-3-3------------------------------5-5-5-5-3-3-3-3-3-3-3-3-5-

G-|-----------------------------------------------------------------

D-|-------------------------------------------------------------------------

A-|--2-3-2--7-7-7-7-5-5-5-5-3-3-3-3-3-3-3-3--2-2-5--------------5-4-4-

E-|-5--------------------------------------------------------------5-2-2-2-2-------

G-|-----------------------|---------------------------------

D-|--------------------------------|-----------

A-|-2-2-5----------------5-4-4-|-2-2-2-2-0-0-0-0-4-4-4-4---

E-|---------5-2-2-2-2-------|--------------------------------------2-2-2-2-

G-|------------------------------------------

D-|------------------------------------------

A-|-3-3-3-3-3-3-3-3-3-3-3-3-3-3-3-3-7-7--7-7-

E-|------------------------------------------

G-|-------------------------------------------------------------------

D-|-------------------------------------------------------------------

A-|--8-7-7-7--8-7-7-7--8-7-7-7--8-10--8-7-7-7--8-7-7-7--8-7-7-7-3-3-3-

E-|-------------------------------------------------------------------

G-|----------------------------------------------------------------------

D-|----------------------------------------------------------------------

A-|--8-7-7-7--8-7-7-7--8-7-7-7--8-10--8-7-7-7--8-7-7-7--8-7-7-7-10-10-10-

E-|----------------------------------------------------------------------

G-|-----------------------------------------------------------------

D-|-----------------------------------------------------------------

A-|-7-7-7-7-5-5-5-5-2-2-2-2-2-2-2-2-7-7-7-7-5-5-5-5-2-2-2-2-2-2-2-2-

E-|-----------------------------------------------------------------

G-|-------------------------------------------------------------------

D-|---------------------------------------------------------------------------------

A-|----------------------8--8--8--8--8--8--8--8------------------------------

E-|-5-5-5-5-3-3-3-3-----------------------------5-5-5-5-3-3-3-3-3-3-3-3-5-

G-|-----------|---------------------------------|-----------------------

D-|-----------|------------------------------------------------|-------------------------

A-|--2-3-2--|-7-7-7-7-5-5-5-5-3-3-3-3-3-3-3-3----|-2-2-5---------------5-4-4-

E-|-5--------|---------------------------------|--------------------------5-2-2-2-2-------

G-|-----------------------|---------------------------------

D-|---------------------------|---------------------------------

A-|-2-2-5-------------5-4-4-|-2-2-2-2-0-0-0-0-4-4-4-4---------

E-|-------5-2-2-2-2-------|------------------------------------2-2-2-2-

G-|---------------------------------

D-|---------------------------------

A-|-3-3-3-3-3-3-3-3-3-3-3-3-3-3-3-3-

E-|---------------------------------

G-|---------------------------------------------------

D-|---------------------------------------------------

A-|--8--8--8-7--8--8--8-7--8--8--8-7--8--8--8-10-10-5-

E-|---------------------------------------------------

G-|-------------------------------------------------------------------

D-|--------------------------------------------------------------------

A-|--8-7-7-7--8-7-7-7--8-7-7-7--8-10--8-7-7-7--8-7-7-7--8-7-7-7-3-3-3-

E-|-------------------------------------------------------------------

G-|----------------------------------------------------------------------

D-|----------------------------------------------------------------------

A-|--8-7-7-7--8-7-7-7--8-7-7-7--8-10--8-7-7-7--8-7-7-7--8-7-7-7-10-10-10-

E-|----------------------------------------------------------------------

G-|-----------------------

D-|-----------------------

A-|--8-7-7-7--8-10--8-7-5-

E-|-----------------------

Get this song at:  amazon.com sheetmusicplus.com

Share your thoughts

0 Comments found