No Use for a Name

No Use for a Name - On The Outside guitar tab

-------------------------------------------------------------------------------

ON THE OUTSIDE (Intro) - No Use For A Name

-------------------------------------------------------------------------------

By:Joey Laffradi:dexter358@hotmail.com

Intro

e|---------------------------------------------------------------------------|

B|---------------------------------------------------------------------------|

G|12 12 12-12 12-11-11-11-11-11-4-4-4-4-4-9-9-9-9-9--------------------------|

D|-9--9--9--9--9--8--8--8--8--8-4-4-4-4-4-6-6-6-6-6--------------------------|

A|10-10-10-10-10--9--9--9--9--9-2-2-2-2-2-7-7-7-7-7--------------------------|

E|------------------------------2-2-2-2-2------------------------------------|

any questions or comments e-mail me.

-------------------------------------------------------------------------------

-------------------------------------------------------------------------------

ON THE OUTSIDE - No Use For A Name

-------------------------------------------------------------------------------

By: Marcus Sjögren (Millencolin@telia.com)

Opening:

G F# B E

e|7----6----2------4--------------------------------------------------

B|8----7----3------5--------------------------------------------------

G|7----6----2------4--------------------------------------------------

D|9----8----4------6--------------------------------------------------

A|7----6----2------4--------------------------------------------------

E|--------------------------------------------------------------------

Drums and bass stop and only guitar and vocals:

"I'll see you on the outside..."

B G Em F#

e|------3------0-----------------------------------------------------|

B|------0------0-----------------------------------------------------|

G|4-----0------0-----------------------------------------------------|

D|4-----0------2------4----------------------------------------------|

A|2-----2------2------4----------------------------------------------|

E|------3------0------2----------------------------------------------|

Then second time it goes:

"I've made mistakes before, and never lived them down..."

(A and F# are with bass and drums)

B G Em A F#

e|--------------------------------------------------------------------|

B|--------------------------------------------------------------------|

G|--------------------------------------------------------------------|

D|--------------------7-----4-----------------------------------------|

A|--------------------7-----4-----------------------------------------|

E|--------------------5-----2-----------------------------------------|

Chorus:

"Don't say another word (I'll see you on the outside)..."

e|--------------------------------------------------------------------|

B|--------------------------------------------------------------------|

G|-----7--------------------------------------------------------------|

D|5----7----7---------------------------------------------------------|

A|5----5----7---------------------------------------------------------|

E|3---------5---------------------------------------------------------|

the third time through that, the "A" note is replaced by F#

then, the opening is played a few times through after like every verse and

chorus. the rythm guitar plays what i tabbed in the beginning for the opening

and the lead plays an octave...

i believe it goes like this:

e|------------------------------------------------------------------

B|-------------16---------------------------------------------------

G|12--11---16---x---------------------------------------------------

D|x---x----x---14---------------------------------------------------

A|10--9---14--------------------------------------------------------

E|------------------------------------------------------------------

i think that's how it goes, kinda bar your index finger so it mutes the

strings i got x'd out...i don't know the solos at the end though

Get this song at:  amazon.com sheetmusicplus.com

Share your thoughts

0 Comments found