No Use for a Name

No Use for a Name - Old What's His Name guitar tab

----------------------------------------------------------------------------------

No Use for a Name - Old what's his name

----------------------------------------------------------------------------------

By: André Quatmann

Es fehlen die Solo-Teile! Wenn Sie jemand hat, bitte mailen!! Thx

Intro:

pm ^ ^ ^ ^

e||----------------------------------------------------------||

B||----------------------------------------------------------||

G||-9-9-9-5-7-7-7-4-5-5-5---7-2-4-4-4-2-5-5-5-2-9-9-9--9-9-9-||

D||-9-9-9-5-7-7-7-4-5-5-5-7-7-2-4-4-4-2-5-5-5-2-9-9-9--9-9-9-||

A||-7-7-7-3-5-5-5-2-3-3-3-7-5-0-2-2-2-0-3-3-3-0-7-7-7--7-7-7-||

E||-----------------------5----------------------------------||

Intro Ende

e||-----------------------------------------------------------------||

B||-----------------------------------------------------------------||

G||-9-9-9-5-7-7-7-4-5-5-5---7-2-4-4-4-2-5-5-5-9-9-9-9-9-9-9-9-------||

D||-9-9-9-5-7-7-7-4-5-5-5-7-7-2-4-4-4-2-5-5-5-9-9-9-9-9-9-9-9-------||

A||-7-7-7-3-5-5-5-2-3-3-3-7-5-0-2-2-2-0-3-3-3-7-7-7-7-7-7-7-7-5-7-5-||

E||-----------------------5-----------------------------------------||

Riff 1:

pm ^ ^ ^ ^ ^ ^ ^ ^ ^ ^ ^ ^

e||-----------------------------------------------------------------------

B||-----------------------------------------------------------------------

G||-----------------------------------------------------------------------

D||-9--9-9-9-9-9-9-9-7-7-7-9-9-9-9-9-9-9-9-------5--5-5-5-5-5-5-5-4-4-4-5-

A||-9--9-9-9-9-9-9-9-7-7-7-9-9-9-9-9-9-9-9-------5--5-5-5-5-5-5-5-4-4-4-5-

E||-7--7-7-7-7-7-7-7-5-5-5-7-7-7-7-7-7-7-7-5/7-5-3--3-3-3-3-3-3-3-2-2-2-3-

pm ^ ^ ^ ^ Ende Riff 1

e||---------------------||

B||---------------------||

G||---------------------||

D||-5-5-5-5-5-5-5-------||

A||-5-5-5-5-5-5-5-------||

E||-3-3-3-3-3-3-3-3/5-5-||

Riff 2:

pm ^ ^ ^ ^ ^ ^ ^ ^ ^ ^ ^ ^

e||---------------------------------------------------------------------

B||---------------------------------------------------------------------

G||---------------------------------------------------------------------

D||-9--9-9-9-9-9-9-9-7-7-7-9-9-9-9-9-9-9-9-------5--5-5-5-5-5-5-5-4-4-4-

A||-9--9-9-9-9-9-9-9-7-7-7-9-9-9-9-9-9-9-9-------5--5-5-5-5-5-5-5-4-4-4-

E||-7--7-7-7-7-7-7-7-5-5-5-7-7-7-7-7-7-7-7-5/7-5-3--3-3-3-3-3-3-3-2-2-2-

Ende Riff 2

e||-------------------------------||

B||-------------------------------||

G||-------------------------------||

D||-5--5-5-5-5-5-5-7--7-7-7-7-7-7-||

A||-5--5-5-5-5-5-5-7--7-7-7-7-7-7-||

E||-3--3-3-3-3-3-3-5--5-5-5-5-5-5-||

Pre-Chorus:

e||-------------------------------------------------------------------------

B||-------------------------8--8--8-8-8-------------------------------------

G||-9--9--9-9-9-7--7--7-7-7-7--7--7-7-7-------------9--9--9-9-9-7--7--7-7-7-

D||-9--9--9-9-9-7--7--7-7-7-5--5--5-5-5-7--7--7-7-7-9--9--9-9-9-7--7--7-7-7-

A||-7--7--7-7-7-5--5--5-5-5-------------7--7--7-7-7-7--7--7-7-7-5--5--5-5-5-

E||-------------------------------------5--5--5-5-5-------------------------

Ende Pre-Chorus

e||------------------------------------------------------------||

B||-8--8--8-8-8------------------------------------------------||

G||-7--7--7-7-7---9-9-9-9-9-9-9-9--------------9-9-9-9-9-9-9-9-||

D||-5--5--5-5-5-7-9-9-9-9-9-9-9-9-4--4-4-4-7-6-9-9-9-9-9-9-9-9-||

A||-------------7-7-7-7-7-7-7-7-7-4--4-4-4-7-6-7-7-7-7-7-7-7-7-||

E||-------------5-----------------2--2-2-2-5-4-----------------||

Chorus:

e||-------------------------------------------------------------------------||

B||-------------------------------------------------------------------------||

G||-5--5-5--5-5-5-7--7-7--7-7-7---------------9--9-9--9-9-9-5--5-5--5-5-5-7-||

D||-5--5-5--5-5-5-7--7-7--7-7-7-7--7-7--7-7-7-9--9-9--9-9-9-5--5-5--5-5-5-7-||

A||-3--3-3--3-3-3-5--5-5--5-5-5-7--7-7--7-7-7-7--7-7--7-7-7-3--3-3--3-3-3-5-||

E||-----------------------------5--5-5--5-5-5-------------------------------||

Gitarren Solo 1: (Währenddessen spielt Gitarre 2 das Intro!)

???

Riff 1 spielen!

pm ^ ^ ^ ^ ^ ^ ^ ^ ^ ^ ^ ^ ^ ^ ^ ^ ^ ^ ^ ^

e||---------------------------------------------------------------------

B||---------------------------------------------------------------------

G||---------------------------------------------------------------------

D||-9--9-9-9-9-9-9-9-7-7-7-9-9-9-9-9-9-9-9-------5--5-5-5-5-5-5-5-4-4-4-

A||-9--9-9-9-9-9-9-9-7-7-7-9-9-9-9-9-9-9-9-------5--5-5-5-5-5-5-5-4-4-4-

E||-7--7-7-7-7-7-7-7-5-5-5-7-7-7-7-7-7-7-7-5/7-5-3--3-3-3-3-3-3-3-2-2-2-

e||-------------------------------||

B||-------------------------------||

G||-------------------------------||

D||-5--5-5-5-5-5-5-7--7-7-7-7-7-7-||

A||-5--5-5-5-5-5-5-7--7-7-7-7-7-7-||

E||-3--3-3-3-3-3-3-5--5-5-5-5-5-5-||

Jetzt Pre-Chorus und dan Chorus spielen!

Gitarren Solo 2: (Währenddessen spielt Gitarre 2 wieder das Intro!)

???

Jetzt den Chorus spielen!

Outro:

e||-----------------------------------------------------------||

B||-----------------------------------------------------------||

G||-5-6-7-8---------7-8-9-10----------9-9--9-9-9--9-7-10-10-9-||

D||-5-6-7-8-4-5-6-7-7-8-9-10-7-8-9-10-9-9--9-9-9--9-7-10-10-9-||

A||-3-4-5-6-4-5-6-7-5-6-7--8-7-8-9-10-7-7--7-7-7--7-5--8--8-7-||

E||---------2-3-4-5----------5-6-7--8-------------------------||

Get this song at:  amazon.com sheetmusicplus.com

Share your thoughts

0 Comments found