No Use for a Name

No Use for a Name - Old Whats His Name bass tab

------------------------------------------------------------------

OLD WHATS HIS NAME / No Use For A Name

------------------------------------------------------------------

tabbed by Carlos Pino

G-|-------------------------------------------------------------------------------------------

D-|--------------------------------------------------------------------------------------------

A-|-7-7-7-7-5-5-5-5-3-3-3-3-5-5-5-5-2-2-2-2-3-3-3-3-2---------------------

E-|-----------------------------------------------------------------------0-0-0-0-0-0-0-0-

G-|-------------------------------------------------------------------------------------------

D-|------------------------------------------------------------------------------------------

A-|-7-7-7-7-5-5-5-5-3-3-3-3-5-5-5-5-2-2-2-2-3-3-3-3-7-7-7-7-7-7-7-7---|

E-|----------------------------------------------------------------------------------------5-5-|

G-|---------------------------------------------------------------------------------------

D-|--------------------------------------------------------------------------------------

A-|---------------------------------------------------------------------------------------

E-|-x-7-x-7-x-7-x-7-x-7-x-7-x-7-5-5-x-3-x-3-x-3-x-3-x-3-x-3-x-3-5-5-

G-|-------------------------------------------------------------------------|

D-|-------------------------------------------------------------------------|

A-|---------------------------------------------------------------------------------------------------

E-|-x-7-x-7-x-7-x-7-x-7-x-7-x-7-5-5-x-3-x-3-x-3-x-3-x-3-x-3-x-3-5-5-5-5-5-5-|

G-|----------------------------------------------------------------------|

D-|-----------------------------------------------------------------

A-|-7-7-7-7-----------5-5-5-5-----------7-7-7-7-----------5-5-5-5------7-7-7-7-7--|

E-|------------3-3-3-3-----------5-5-5-5-----------3-3-3-3--------------5------------|

G-|-----------------------|--------------------------------------------------------------------------

D-|-----------------------|----------------------------------------------------------------------

A-|-------------------------------|-3-3-3-3-3-3-3-3-5-5-5-5-5-5-5-5------------------------

E-|-2-2-2-2-5-4-0-0-0-0-0-|-----------------------------------------------5-5-5-5-5-5-5-5-

G-|-----------------------------------------------------|

D-|----------------------------------------------------------|

A-|-7-7-7-7-7-7-7-7-3-3-3-3-3-3-3-3-5-5-5-5-|

E-|--------------------------------------------------------|

G-|-----------------------------------------------------------------

D-|-----------------------------------------------------------------

A-|------------------------------------------------------------------------------------

E-|-x-7-x-7-x-7-x-7-x-7-x-7-x-7-5-5-x-3-x-3-x-3-x-3-x-3-x-3-x-3-5-5-

G-|-------------------------------------------------------------------------|

D-|-------------------------------------------------------------------------|

A-|----------------------------------------------------------------------------------------------------

E-|-x-7-x-7-x-7-x-7-x-7-x-7-x-7-5-5-x-3-x-3-x-3-x-3-x-3-x-3-x-3-5-5-5-5-5-5-|

G-|----------------------------------------------------------------------|

D-|----------------------------------------------------------------------|

A-|-7-7-7-7---------5-5-5-5---------7-7-7-7---------5-5-5-5-----7-7-7-7-7--|

E-|---------3-3-3-3---------5-5-5-5---------3-3-3-3------------5------------|

G-|-----------------------|-------------------------------------------------

D-|-----------------------|-------------------------------------------------------

A-|--------------------------------|-3-3-3-3-3-3-3-3-5-5-5-5-5-5-5-5---

E-|-2-2-2-2-5-4-0-0-0-0-0-|-----------------------------------------------5-5-5-5-5-5-5-5-

G-|-----------------------------------------|

D-|-----------------------------------------|

A-|-7-7-7-7-7-7-7-7-3-3-3-3-3-3-3-3-5-5-5-5-|

E-|-----------------------------------------|

G-|------------------------------------------------------------------------------------------

D-|------------------------------------------------------------------------------------------

A-|-3-3-3-3-3-3-3-3-5-5-5-5-5-5-5-5-------------------------7-7-7-7-7-7-7-7-

E-|---------------------------------------------5-5-5-5-5-5-5-5---------------------------

G-|-------------------------|--------------|

D-|----------------------------------|------

A-|-3-3-3-3-3-3-3-3-5-5-5-5-|---|--

E-|-------------------------|---------------

Taken from The BassMasta -- http://www.tabs-database.com

Get this song at:  amazon.com sheetmusicplus.com

Share your thoughts

0 Comments found