No Use for a Name

No Use for a Name - Not You Savior guitar tab

-------------------------------------------------------------------------------

NOT YOUR SAVIOR - No Use For A Name

-------------------------------------------------------------------------------

by Kev Lamoureux ( W4sSuP@caramail.com)

PART 1( guitar 1 )

e|---------------------------------------------------------------------------|

B|-8---8---8----8---8---8---6---6---6---8---8---8----------------------------|

G|---5---5---5----4---4---4---2---2---2---5---5---5--------------------------|

D|---------------------------------------------------------------------------|

A|---------------------------------------------------------------------------|

E|---------------------------------------------------------------------------|

PART 1(guitar 2 )

e|---------------------------------------------------------------------------|

B|---------------------------------------------------------------------------|

G|---------------------------------------------------------------------------|

D|-5-5-5-5-5-5-2-2-2-2-2-2-3-3-3-3-3-3-5-5-5-5-5-5---------------------------|

A|-3-3-3-3-3-3-2-2-2-2-2-2-3-3-3-3-3-3-5-5-5-5-5-5---------------------------|

E|-------------0-0-0-0-0-0-1-1-1-1-1-1-3-3-3-3-3-3---------------------------|

Repeat all of part 1

PART 2

e|---------------------------------------------------------------------------|

B|---------------------------------------------------------------------------|

G|------------------9-109-12-------------------------------------------------|

D|-5-5-5-5-5-5-5-5--X-X-X-X--------------------------------------------------|

A|-3-3-3-3-3-3-3-3--7-8-7-10-------------------------------------------------|

E|---------------------------------------------------------------------------|

VERSE

e|---------------------------------------------------------------------------|

B|---------------------------------------------------------------------------|

G|---------------------------------------------------------------------------|

D|-7-7-7-7--5-5-5-5--5-5-5-5--5-5-5-5--5-5-5-5--7-7-7-7--5-5-5-5--3-3-3-3----|

A|-5-5-5-5--3-3-3-3--2-2-2-2--3-3-3-3--2-2-2-2--7-7-7-7--5-5-5-5--3-3-3-3----|

E|----------------------------------------------5-5-5-5--3-3-3-3--1-1-1-1----|

e|---------------------------------------------------------------------------|

B|---------------------------------------------------------------------------|

G|---------------------------------------------------------------------------|

D|-5-5-5-5-------------------------------------------------------------------|

A|-5-5-5-5-------------------------------------------------------------------|

E|-3-3-3-3-------------------------------------------------------------------|

REPEAT PART 2/VERSE

BRIDGE ( guitar 1 )

e|-8-8-8-8--7-7-7-7----------------------------------------------------------|

B|-X-X-X-X--X-X-X-X--8-8-8-8-10-10-10-10-------------------------------------|

G|-5-5-5-5--4-4-4-4--X-X-X-X-X--X--X--X--------------------------------------|

D|-------------------5-5-5-5-7--7--7--7---5-5-5-5---------------------------3|

A|----------------------------------------3-3-3-3--2-2--2-2-2--2-2-2--2-2-2-3|

E|-------------------------------------------------3-3--3-3-3--3-3-3--3-3-3-1|

PM......................

CHORUS ( guitar 1 )

e|---------------------------------------------------------------------------|

B|---------------------------------------------------------------------------|

G|---------------------------------------------------------------------------|

D|-5-5-5-5-5-5-5-5-3-3-3-3-5-5-5-5--5-5-5-5-2-2-2-2-3-3-3-3-3-3-3-3----------|

A|-3-3-3-3-5-5-5-5-3-3-3-3-5-5-5-5--3-3-3-3-2-2-2-2-3-3-3-3-3-3-3-3----------|

E|---------3-3-3-3-1-1-1-1-3-3-3-3----------0-0-0-0-1-1-1-1-1-1-1-1----------|

CHORUS ( guitar 2 )

e|---------------------------------------------------------------------------|

B|-6-6-6-6--8-8-8-8--10101010-9-9-9-9----------------------------------------|

G|-x-x-x-x--x-x-x-x--x-x-x-x--x-x-x-x----------------------------------------|

D|-3-3-3-3--5-5-5-5--7-7-7-7--6-6-6-6----------------------------------------|

A|---------------------------------------------------------------------------|

E|---------------------------------------------------------------------------|

PART 3 ( pendant la parti du violon )

e|---------------------------------------------------------------------------|

B|---------------------------------------------------------------------------|

G|---------------------------------------------------------------------------|

D|-5-5-5-5--5-5-5-5--7-7-7-7--5-5-5-5--3-3-3-3--5-5-5-5----------------------|

A|-3-3-3-3--2-2-2-2--7-7-7-7--5-5-5-5--3-3-3-3--5-5-5-5----------------------|

E|-------------------5-5-5-5--3-3-3-3--1-1-1-1--3-3-3-3----------------------|

Get this song at:  amazon.com sheetmusicplus.com

Share your thoughts

0 Comments found