No Use for a Name

No Use for a Name - Nailed Shut bass tab

Artist No Use For A Name

Song Nailed Shut

Album Hard Rock Bottom

standard tuning

tabbed by TheBigLebowski (philmccracken7@yahoo.com)

Intro

1| |------------------|-------------------------------------------------------------|

2| |---1212121110-----|-------------------------------------------------------------|

3|REST|-------------1210-|-55555555--------22222222-----------55555555-------22222222--|

4| |------------------|---------55555555--------33333333-1---------5555555--------3-|

Cont.

1|------------------------------------|

2|--------------------------5555-7777-|

3|-22222222---------------------------|

4|---------55555555-33333333----------|

Verse

1|-------------------------------------------------------------------------|

2|-------------------------------------------------------------55-44-------|

3|-55555555--------22222222-----------55555555-----------------------77-55-|

4|---------55555555--------33333333-1---------55555555-33333333------------|

Cont.

1|---------------------------------------------------------------------|-------------|

2|---------------------------------------------------------------------|-------------|

3|55555555--------22222222-----------55555555--------------------------|-------------|

4|--------55555555--------33333333-1---------5555555-33333333-33333333-|-5~-3~-2~-0~-|

Pre-Chorus

1|---------------------------------------7-7--------------------------|

2|------------------------555-777-99-555--5-5-7777-7777-9999-9999-10~-|

3|22222222-------55555555---------------------------------------------|

4|--------5555555-----------------------------------------------------|

Chorus

1|--------------------------------------------------------------7-7--|

2|-----------------------------------------------------------5-7-7-7-|

3|55555555--------22222222--------55555555--------22222222-----------|

4|--------55555555--------33333333--------55555555---------3---------|

Cont.

1|--------------------------------------------------------------------------|

2|----------------------------------------------------------555-444---------|

3|55555555--------22222222--------55555555--------------------------777-555-|

4|--------55555555--------33333333--------55555555-33333333-----------------|

Cont.

1|------------------------------------------------------------------|-------------|

2|------------------------------------------------------------------|-------------|

3|55555555--------22222222--------55555555--------------------------|-------------|

4|--------55555555--------33333333--------55555555-33333333-3333333-|-5~-3~-2~-0~-|

Pre-CHorus 1x

Last Chorus 3x

1|-----------------------------------|--------------------------------------------|

2|-----------------------------------|--------------------------------------------|

3|55555555--------22222222-----------|55555555--------22222222----------------5~--|

4|--------55555555--------33333333/1-|--------55555555--------555-333-222-000-----|

Please rate this tab, THanks.

Taken from The BassMasta -- http://www.tabs-database.com

Get this song at:  amazon.com sheetmusicplus.com

Share your thoughts

0 Comments found