No Use for a Name

No Use for a Name - Lifesize Mirror guitar tab

-------------------------------------------------------------------------------

LIFE SIZE MIRROR - No Use For A Name

-------------------------------------------------------------------------------

Tuning: EADGBE

Tabbed by: Daniel Keene

Email address: pubo@hotmail.com

> - hold

x - palm mute

Intro:

e|-------------------------------------------------------------------------------|

B|-------------------------------------------------------------------------------|

G|-------------------------------------------------------------------------------|

D|---------8-8-7-7-5-5--------8-8-7-7-5-5-------7-7-5-5-3-3----------------------|

A|-----5-5----------------5-5---------------3-3--------------7-7-8-8-10-10-10-10-|

E|-------------------------------------------------------------------------------|

Bass intro:

e|---------------------------------------------------------------|

B|---------------------------------------------------------------|

G|---------------------------------------------------------------|

D|---------------------------------------------------------------|

A|--5>------------------3>---------------------------------------|

E|--------6>----1>-----------------------------------------------|

Guitar verse:

e|---------------------------------------------------------------|

B|---------------------------------------------------------------|

G|---------------------------------------------------------------|

D|----7-x-x-x-x-------------------------------5-x-x-x-x----------|

A|----5-x-x-x-x--8-x-x-x-x-----3-x-x-x-x------3-x-x-x-x----------|

E|---------------6-x-x-x-x-----1-x-x-x-x-------------------------|

Chorusy bit:

e|---------------------------------------------------------------|

B|---------------------------------------------------------------|

G|---------------------------------------------------------------|

D|--10-5--7--2--3------------------------------------------------|

A|---8-3--5--0--1----3-----5-------------------------------------|

E|-------------------1-----3-------------------------------------|

bridge:

e|-----------------------------------------------------------------------------|

B|-----------------------------------------------------------------------------|

G|---------------------------4-4-4-4-5-5-5-5-----------------------------------|

D|-----7-7-7-7---5-5-5-5-----2-2-2-2-3-3-3-3---3-3-2-0-----7-7-7-5-5-5---------|

A|-----5-5-5-5---3-3-3-3-----------------------------------5-5-5-3-3-3-0-----4-|

E|-----------------------------------------------------------------------3--5--|

Order:

intro x 3

verse x 4

chorusy bit x 2

verse x 4

chorusy bit x 2

bridge x 1

chorusy bit x 2

then this bit:

D]-3-3-3-3----------------------------[

A]-1-1-1-1-3-3-3-3-5-5-5-5-2-2-2-2----[

E]---------1-1-1-1-3-3-3-3-0-0-0-0----[

then you play the intro about 4 or so times.

Get this song at:  amazon.com sheetmusicplus.com

Share your thoughts

0 Comments found