No Use for a Name

No Use for a Name - Life Sized Mirror guitar tab

Title:Life Sized Mirror

Band: No Use For A Name

Tabber: Kyle

Heres the lead intro bit and then the chords. Its in no order. Figure the Chord Progresion

out yourself. There are just too many chords for that nonsense.

Intro:x4

e--------------------------------------------------------

B--------------------------------------------------------

G--------3-3--2-2--0-0-------3-3--2-2--0-0---------------

D----0-0-----------------0-0-----------------------------

A--------------------------------------------------------

E--------------------------------------------------------

e--------------------------------------------------------

B--------------------------------------------------------

G--------2-2--0-0-----------------0-0--2-2---------------

D------------------3-3--2-2--3-3-------------------------

A----3-3-------------------------------------------------

E--------------------------------------------------------

Riff A: palm muted x2

e--------------------------------------------------------

B--------------------------------------------------------

G--------------------------------------------------------

D----7-7-7-7-7-7-7-7---3-3-3-3-3-3-3-3-------------------

A----5-5-5-5-5-5-5-5---1-1-1-1-1-1-1-1---3-3-3-3-3-3-3-3-

E----------------------------------------1-1-1-1-1-1-1-1-

e--------------------------------------------------------

B--------------------------------------------------------

G--------------------------------------------------------

D----5-5-5-5-5-5-5-5---7-7-7-7-7-7-7-7---3-3-3-3-3-3-3-3

A----3-3-3-3-3-3-3-3---5-5-5-5-5-5-5-5---1-1-1-1-1-1-1-1

E

e--------------------------------------------------------

B--------------------------------------------------------

G--------------------------------------------------------

D--------------------------------------------------------

A----3-3-3-3-3-3-3---7-7-7-7-7-7-7-7---------------------

E----1-1-1-1-1-1-1---5-5-5-5-5-5-5-5---------------------

Riff B: x2

e--------------------------------------------------------

B--------------------------------------------------------

G--------------------------------------------------------

D---------------------10-10-10-10-10-10-10-10------------

A---8-8-8-8-8-8-8-8---8-8-8-8-8-8-8-8-8-8-8----10-10-10--

E---6-6-6-6-6-6-6-6----------------------------8-8-8-----

e--------------------------------------------------------

B--------------------------------------------------------

G--------------------------------------------------------

D--------------------------------------------------------

A----10-10-10-10-10---12-12-12-12-12-12-12-12------------

E----8-8-8-8-8--------10-10-10-10-10-10-10-10------------

e--------------------------------------------------------

B--------------------------------------------------------

G--------------------------------------------------------

D----6-6-6-6-6-6-6-6-------------------------------------

A----8-8-8-8-8-8-8-8---10-10-10-10-10-10-10-10-----------

E----7-7-7-7-7-7-7-7---8-8-8-8-8-8-8-8-8-8-8-8-----------

e--------------------------------------------------------

B--------------------------------------------------------

G--------------------------------------------------------

D--------------------------------------------------------

A----10-10-10-10-10-10-10-10-----------------------------

E----8-8-8-8-8-8-8-8-------------------------------------

Riff C: x1

e--------------------------------------------------------

B--------------------------------------------------------

G--------------------------------------------------------

D--------------------------------------------------------

A----8---8---8---8---10---10---10---10---7---7---7--7----

E----6---6---6---6----8----8----8----8---5---5---5--5----

e--------------------------------------------------------

B--------------------------------------------------------

G--------------------------------------------------------

D----7---7---7---7---------------------------------------

A----5---5---5---5--------------------------------------

E----------------------------------------------------------

Riff D: x2

Heres the chords

Bbx16, Cx16, Bbx8, Cx8, F5x2, E5x2, Dx2, Cx2, Gx8, Bbx8, Ax16 and then it goes back to

the intro for the outro

Get this song at:  amazon.com sheetmusicplus.com

Share your thoughts

0 Comments found