No Use for a Name

No Use for a Name - Life Size Mirror guitar tab

tabs-database.com[http://www.tabs-database.com.com/]

No Use For A Name

"Life Size Mirror"

This song is in Drop D

Intro:

e--------------------------------

B--------------------------------

G-----3-3-2-2-0-0-----3-3-2-2-0-0

D-0-0-------------0-0------------

A--------------------------------

D--------------------------------

e--------------------------------

B--------------------------------

G-----2-2-0-0-------------0-0-2-2

D-------------3-3-2-2-3-3--------

A-3-3----------------------------

D--------------------------------

(2nd guitar comes in here with verse chords)

picking 3x

Verse:

e-( palm muted )----------------

B----------------------------------

G------3---------5-----------------

D-0----3----3----5-----------(3x)--

A-0----1----3----3-----------------

D-0---------3----------------------

Break point:(2nd guitar)

e-----3------3-1-

B-3-3--3-3-3-----(End of 2nd measure)

(4th time)

e----------------------------------

B----------------------------------

G------3---------------------------

D-0----3----3----7-----------------

A-0----1----3----7-----------------

D-0---------3----7-----------------

Chorus:

e----------------------------------

B----------------------------------

G------10--------------------------

D-8----10---10----0-----8----5---10

A-8----8----10----0-----8----5---10

D-8---------10----0-----8----5---10

e----------------------------------

B----------------------------------

G------10--------------------------

D-8----10---10----0-----8----7---10

A-8----8----10----0-----8----8---10

D-8---------10----0-----8----8---10

(Verse 2)

(Chorus)

Bridge:

e----------------------------------

B----------------------------------

G-----------------7----------------

D-8----10----7----7----------------

A-8(4x)10(4x)7(4x)5(4x)------------

D-8----10----7---------------------

e----------------------------------

B----------------------------------

G------10------------------( rest )

D-8----10---7-7-7-7-7-7-7-7--------

A-8----8----7-7-7-7-7-7-7-7--------

D-8---------7-7-7-7-7-7-7-7--------

(Chorus)

Outtro:

and she will only see your reflection...

e----------------------------------

B------------( hold notes )-----

G---------------------------5------

D-8----10----3----2----0----5------

A-8----10----3----2----0----3------

D-8----10----3----2----0-----------

e----------------------------------

B----------------------------------

G----------------------------------

D-5----8----7----7-----------------

A-5----8----7----7-----------------

D-5----8----7----7-----------------

(intro 4x)

end:

e----------------------------------

B----------------------------------

G------2-3-2-0-2-------------------

D-0-----------------0--------------

A-0--------------------------------

D-0--------------------------------

I had to post a right tab for this song. It was bugging me. ~By CaFF

Added by tabs-database.com and our distinguished partners

Get this song at:  amazon.com sheetmusicplus.com

Share your thoughts

0 Comments found