No Use for a Name

No Use for a Name - Life Size Mirror bass tab

No Use For A Name

Life Size Mirror

DROP D TUNING!

Guitar Intro

G----33-22-00---33-22-00----22-00-----------------

D-0-----------00------------------33-22-33-55-77--

A------------------------33-----------------------

D-------------------------------------------------

Intro

G--------------------------------

D--------------------------------

A-5555555-1111111-------33333333-

D----------------3333333---------

VERSE pt.1

G--------------------------------------

D--------------------------------------

A----------11111111------------33333333(before chours play x18)

D-00000000-----------33333333----------

verse pt.2

G------------------------------------

D------------------------------------

A----------11111111----------00000000

D-OOOOOOOO----------33333333---------

CHOURS

G--------------------------------------

D-----------33333333-------------------

A-11111111-----------33333333----------

D------------------------------OOOOOOOO

"For every person there's a whole life...that hammer on part do kinda slow...

G---------------------------------------

D-------------------------------------3-

A-11111111-22222222-3333333333333--3h5--

D---------------------------------------

We'll just watch her self destruct...

A-1111111-11111111-3333333333333333--

GETTING USE TO PEOPLE LEAVING.......

A-1111-3333-0000-5555

AFTER...

G-------------------------

D----3*-------------------

A-1*----3*-0000000000000--

D-------------------------

CHOURS

Before next part there is a little bass line in the middle...Pretty fast..

G--------------------------------------

D--------------------------------3-2-0-

A-111111-11111111-3333333333-3h5-------

D-------------------------------------

..of her fathers rejection..

G-------------------------------------------------------------

D---------------3*-2*-0*--------------------------------------

A-111111-333333---------3-------------------------------------

D--------------------------44444444-8888888-7777777777777777--

Verse Pt.1

End on D

THATS AS EASY AS IT GETS REERRRR-ATE!

Taken from The BassMasta -- http://www.tabs-database.com

Get this song at:  amazon.com sheetmusicplus.com

Share your thoughts

0 Comments found