No Use for a Name

No Use for a Name - Lies Cant Pretend guitar tab

-------------------------------------------------------------------------------

LIES CAN'T PRETEND - No Use For A Name

-------------------------------------------------------------------------------

TABBED BY JONNY APPLESEED

RYTHYM NOT TABBED

PM=PALM MUTE

INTRO:

GUITAR1:X2

e|-------------------------------------------------------------------------------------|

B|-------------------------------------------------------------------------------------|

G|-17-17-16-16-14-14-12-12-14-14-14-14-14-14---17-17-16-16-14-14-12-12-9-9-12-12-16-16-|

D|--X--X--X--X--X--X--X--X--X--X--X--X--X--X----X--X--X--X--X--X--X--X-X-X--X--X--X--X-|

A|-15-15-14-14-12-12-10-10-12-12-12-12-12-12---15-15-14-14-12-12-10-10-7-7-10-10-14-14-|

E|-------------------------------------------------------------------------------------|

GUITAR 2:

e|---------------------------------------------------------------------------------------------|

B|---------------------------------------------------------------------------------------------|

G|----[--------PM--------]-10-10-10-10-10-10-10-10------[---------PM--------]--5-5-5-5-5-5-5-5-|

D|-7-7-7-7-7-7-7-7-7-7-7-7-10-10-10-10-10-10-10-10---5-5-5-5-5-5-5-5-5-5-5-5-5-5-5-5-5-5-5-5-5-|

A|-7-7-7-7-7-7-7-7-7-7-7-7--8--8--8--8--7--7--7--7---5-5-5-5-5-5-5-5-5-5-5-5-5-3-3-3-3-2-2-2-2-|

E|-5-5-5-5-5-5-5-5-5-5-5-5---------------------------3-3-3-3-3-3-3-3-3-3-3-3-3-----------------|

e|---------------------------------------------------------------------------------------------|

B|---------------------------------------------------------------------------------------------|

G|----[--------PM--------]-10-10-10-10-10-10-10-10------[---------PM--------]---------9-9-9-9--|

D|-7-7-7-7-7-7-7-7-7-7-7-7-10-10-10-10-10-10-10-10--5-5-5-5-5-5-5-5-5-5-5-5-5-2-2-2-2-9-9-9-9--|

A|-7-7-7-7-7-7-7-7-7-7-7-7--8--8--8--8--7--7--7--7--5-5-5-5-5-5-5-5-5-5-5-5-5-2-2-2-2-7-7-7-7--|

E|-5-5-5-5-5-5-5-5-5-5-5-5--------------------------3-3-3-3-3-3-3-3-3-3-3-3-3-0-0-0-0----------|

VERSE1:

GUITAR 1: X2

e|-----------------------------------------------------------------------------------------|

B|-----------------------------------------------------------------------------------------|

G|-5-5-5-5-5-5-5-5-5-5-16-16-16-16-18-18-16-16---------------------13-13-13-13-14-14-13-13-|

D|-5-5-5-5-5-5-5-5-5-5--X--X--X--X--X--X--X--X-7-7-7-7-7-7-7-7-7-7--X--X--X--X--X--X--X--X-|

A|-3-3-3-3-3-3-3-3-3-3-14-14-14-14-16-16-14-14-7-7-7-7-7-7-7-7-7-7-11-11-11-11-12-12-11-11-|

E|---------------------------------------------5-5-5-5-5-5-5-5-5-5-------------------------|

2ND

TIME THROUGH >

e|-----------------------------------------------------------------------------------------|

B|-----------------------------------------------------------------------------------------|

G|-10-10-10-10-10-10-10-10-5-5-5-5-5-5-5-5-----------------10-10-10-10-10-10-10-10->-9-9-9-|

D|-10-10-10-10-10-10-10-10-5-5-5-5-5-5-5-5-5-5-5-5-5-5-5-5--X--X--X--X--X--X--X--X->-X-X-X-|

A|--8--8--8--8--8--8--8--8-3-3-3-3-3-3-3-3-5-5-5-5-5-5-5-5--8--8--8--8--8--8--8--8->-7-7-7-|

E|-----------------------------------------3-3-3-3-3-3-3-3---------------------------------|

GUITAR2: X2

e|-----------------------------------------------------------------------------------------

B|-----------------------------------------------------------------------------------------

G|-5-5-5-5-5-5-5-5-5-5-12-12-12-12-12-12-12-12-------------------------9-9-9-9-9-9-9-9-9-9-

D|-5-5-5-5-5-5-5-5-5-5-12-12-12-12-12-12-12-12-7-7-7-7-7-7-7-7-7-7-7-7-9-9-9-9-9-9-9-9-9-9-

A|-3-3-3-3-3-3-3-3-3-3-10-10-10-10-10-10-10-10-7-7-7-7-7-7-7-7-7-7-7-7-7-7-7-7-7-7-7-7-7-7-

E|---------------------------------------------5-5-5-5-5-5-5-5-5-5-5-5---------------------

2ND

TIME THROUGH >

e|-----------------------------------------------------------------------------------------|

B|-----------------------------------------------------------------------------------------|

G|-10-10-10-10-10-10-10-10-5-5-5-5-5-5-5-5-----------------10-10-10-10-10-10-10-10->-9-9-9-|

D|-10-10-10-10-10-10-10-10-5-5-5-5-5-5-5-5-5-5-5-5-5-5-5-5-10-10-10-10-10-10-10-10->-9-9-9-|

A|--8--8--8--8--8--8--8--8-3-3-3-3-3-3-3-3-5-5-5-5-5-5-5-5--8--8--8--8--8--8--8--8->-7-7-7-|

E|-----------------------------------------3-3-3-3-3-3-3-3---------------------------------|

CHORUS:X2

GUITAR 2 & 1:

e|-------------------------------------------------------------------------|

B|-------------------------------------------------------------------------|

G|---------------------------------5-5-5-5-9-9-9-9-10-10-10-10-12-12-12-12-|

D|-7-7-7-7-5-5-5-5-3-3-3-3-2-2-2-2-5-5-5-5-9-9-9-9-10-10-10-10-12-12-12-12-|

A|-7-7-7-7-5-5-5-5-3-3-3-3-2-2-2-2-3-3-3-3-7-7-7-7--8--8--8--8-10-10-10-10-|

E|-5-5-5-5-3-3-3-3-1-1-1-1-0-0-0-0-----------------------------------------|

BRIDGE:

GUITAR1:

e|-------------------------------------------------------------------------------------|

B|-------------------------------------------------------------------------------------|

G|-17-17-16-16-14-14-12-12-14-14-14-14-14-14---17-17-16-16-14-14-12-12-9-9-12-12-16-16-|

D|--X--X--X--X--X--X--X--X--X--X--X--X--X--X----X--X--X--X--X--X--X--X-X-X--X--X--X--X-|

A|-15-15-14-14-12-12-10-10-12-12-12-12-12-12---15-15-14-14-12-12-10-10-7-7-10-10-14-14-|

E|-------------------------------------------------------------------------------------|

GUITAR 2:

e|-------------------------------------------------------------------------------------------|

B|-------------------------------------------------------------------------------------------|

G|----[--------PM--------]-10-10-10-10-10-10-10-10------[---------PM--------]--5-5-5-5-------|

D|-7-7-7-7-7-7-7-7-7-7-7-7-10-10-10-10-10-10-10-10---5-5-5-5-5-5-5-5-5-5-5-5-5-5-5-5-5--3--5-|

A|-7-7-7-7-7-7-7-7-7-7-7-7--8--8--8--8--7--7--7--7---5-5-5-5-5-5-5-5-5-5-5-5-5-3-3-3-3--3--5-|

E|-5-5-5-5-5-5-5-5-5-5-5-5---------------------------3-3-3-3-3-3-3-3-3-3-3-3-3----------1--3-|

VERSE2:

GUITAR 1:

e|-----------------------------------------------------------------------------------------|

B|-----------------------------------------------------------------------------------------|

G|-5-5-5-5-5-5-5-5-5-5-16-16-16-16-18-18-16-16---------------------13-13-13-13-14-14-13-13-|

D|-5-5-5-5-5-5-5-5-5-5--X--X--X--X--X--X--X--X-7-7-7-7-7-7-7-7-7-7--X--X--X--X--X--X--X--X-|

A|-3-3-3-3-3-3-3-3-3-3-14-14-14-14-16-16-14-14-7-7-7-7-7-7-7-7-7-7-11-11-11-11-12-12-11-11-|

E|---------------------------------------------5-5-5-5-5-5-5-5-5-5-------------------------|

e|------------------------------------------------------------------------------------|

B|------------------------------------------------------------------------------------|

G|-10-10-10-10-10-10-10-10-5-5-5-5-5-5-5-5-----------------10-10-10-10-10-10-10-10--9-|

D|-10-10-10-10-10-10-10-10-5-5-5-5-5-5-5-5-5-5-5-5-5-5-5-5--X--X--X--X--X--X--X--X--X-|

A|--8--8--8--8--8--8--8--8-3-3-3-3-3-3-3-3-5-5-5-5-5-5-5-5--8--8--8--8--8--8--8--8--7-|

E|-----------------------------------------3-3-3-3-3-3-3-3----------------------------|

GUITAR2: X2

e|-----------------------------------------------------------------------------------------

B|-----------------------------------------------------------------------------------------

G|-5-5-5-5-5-5-5-5-5-5-12-12-12-12-12-12-12-12-------------------------9-9-9-9-9-9-9-9-9-9-

D|-5-5-5-5-5-5-5-5-5-5-12-12-12-12-12-12-12-12-7-7-7-7-7-7-7-7-7-7-7-7-9-9-9-9-9-9-9-9-9-9-

A|-3-3-3-3-3-3-3-3-3-3-10-10-10-10-10-10-10-10-7-7-7-7-7-7-7-7-7-7-7-7-7-7-7-7-7-7-7-7-7-7-

E|---------------------------------------------5-5-5-5-5-5-5-5-5-5-5-5---------------------

e|-----------------------------------------------------------------------------------|

B|-----------------------------------------------------------------------------------|

G|-10-10-10-10-10-10-10-10-5-5-5-5-5-5-5-5-----------------10-10-10-10-10-10-10-10-9-|

D|-10-10-10-10-10-10-10-10-5-5-5-5-5-5-5-5-5-5-5-5-5-5-5-5-10-10-10-10-10-10-10-10-9-|

A|--8--8--8--8--8--8--8--8-3-3-3-3-3-3-3-3-5-5-5-5-5-5-5-5--8--8--8--8--8--8--8--8-7-|

E|-----------------------------------------3-3-3-3-3-3-3-3---------------------------|

CHORUS:X2

GUITAR 2 & 1:

e|-------------------------------------------------------------------------|

B|-------------------------------------------------------------------------|

G|---------------------------------5-5-5-5-9-9-9-9-10-10-10-10-12-12-12-12-|

D|-7-7-7-7-5-5-5-5-3-3-3-3-2-2-2-2-5-5-5-5-9-9-9-9-10-10-10-10-12-12-12-12-|

A|-7-7-7-7-5-5-5-5-3-3-3-3-2-2-2-2-3-3-3-3-7-7-7-7--8--8--8--8-10-10-10-10-|

E|-5-5-5-5-3-3-3-3-1-1-1-1-0-0-0-0-----------------------------------------|

OUTRO:

GUITAR 1: (TRUE & RIGHT...........)

e|--------------------------------------------------------------------------------------->

B|--------------------------------------------------------------------------------------->

G|-17-17-19-19-21-21-22-22-19-19-17-17-16-16-16-16--17-17-16-16-14-14--12-12-14-14-16-16->

D|--X--X--X--X--X--X--X--X--X--X--X--X--X--X--X--X---X--X--X--X--X--X---X--X--X--X--X--X->

A|-15-15-17-17-19-19-20-20-17-17-15-15-14-14-14-14--15-15-14-14-12-12--10-10-10-10-10-10->

E|--------------------------------------------------------------------------------------->

e|-----------------------------------------------------------------------------|

B|-----------------------------------------------------------------------------|

G|-17-17-16-16-14-14--12-12-14-14-16-16--10-10-10-10-10------10-10-10-10-10--9-|

D|--X--X--X--X--X--X---X--X--X--X--X--X---X--X--X--X--X--10---X--X--X--X--X--X-|

A|-15-15-14-14-12-12--10-10-12-12-14-14---8--8--8--8--8--10---8--8--8--8--8--7-|

E|--------------------------------------------------------8--------------------|

GUITAR 2: (TRUE & RIGHT.........)

e|---------------------------------------------------------------------------------->

B|---------------------------------------------------------------------------------->

G|-5-5-5-5-5-5-5-5-5-12-12-12-12-12-12-12-12-12-------------------9-9-9-9-9-9-9-9-9->

D|-5-5-5-5-5-5-5-5-5-12-12-12-12-12-12-12-12-12-7-7-7-7-7-7-7-7-7-9-9-9-9-9-9-9-9-9->

A|-3-3-3-3-3-3-3-3-3-10-10-10-10-10-10-10-10-10-7-7-7-7-7-7-7-7-7-7-7-7-7-7-7-7-7-7->

E|----------------------------------------------5-5-5-5-5-5-5-5-5------------------->

e|------------------------------------------------------------------------|

B|------------------------------------------------------------------------|

G|-10-10-10-10-10-10-12-12-12-12-12-12--10-10-10-10-10--------------------|

D|-10-10-10-10-10-10-12-12-12-12-12-12--10-10-10-10-10--10--8-8-8-8-8--10-|

A|--8--8--8--8--8--8-10-10-10-10-10-10---8--8--8--8--8--10--8-8-8-8-8--10-|

E|-------------------------------------------------------8--6-6-6-6-6---8-|

QUESTIONS OR CORRECTIONS PUNKJ@HOTMAIL.COM

-------------------------------------------------------------------------------

Get this song at:  amazon.com sheetmusicplus.com

Share your thoughts

0 Comments found