No Use for a Name

No Use for a Name - Lies Cant Pretend bass tab

Band:No Use For A Name

Song:Lies Can't Pretend

Album:More Betterness

Tabbed by Kyle Gayne

Intro

G:------------------------------------------------------------------|

D:------------------------------------------------------------------|

A:-----------------8888888877777777----------------3333333322222222-|x1

E:-55------------------------------33-------------------------------|

G:---------------------------------------------------------------------------|

D:---------------------------------------------------------------------------|

A:-----------------8888888877777777------------------------------------------|x1

E:-5555555555555555----------------333333333333333300000000/1212121212121212-|

Verse 1

G:------------------------------------------------------------------|

D:------------------------------------------------------------------|

A:-3333333333333333----------------0000000000000000-----------------|x1

E:-----------------3333333333333333----------------0000000000000000-|

G:------------------------------------------------------------------|

D:------------------------------------------------------------------|

A:-----------------3333333333333333---------------------------------|x1

E:-1111111111111111----------------33333333333333331111111111111111-|

G:------------------------------------------------------------------|

D:------------------------------------------------------------------|

A:-3333333333333333----------------0000000000000000-----------------|x1

E:-----------------3333333333333333----------------0000000000000000-|

G:------------------------------------------------------------------|

D:------------------------------------------------------------------|

A:-----------------3333333333333333---------------------------------|x1

E:-1111111111111111----------------33333333333333331111111100000000-|

Chorus

G:------------------------------------------------------------------|

D:-----------------------------------------222222223333333355555555-|

A:---------------------------------33333333-------------------------|x1

E:-55555555333333332222222211111111---------------------------------|

G:------------------------------------------------------------------|

D:-----------------------------------------222222223333333355555555-|

A:-----------------999999998888888833333333-------------------------|x1

E:-5555555533333333-------------------------------------------------|

Pre Verse

G:------------------------------------------------------------------|

D:---------------------------------------------------------2~--5~---|

A:-----------------8888888877777777----------------33333333---------|x1

E:-5555555555555555----------------3333333333333333-----------------|

Verse 2

G:------------------------------------------------------------------|

D:------------------------------------------------------------------|

A:-3333333333333333----------------0000000000000000-----------------|x1

E:-----------------3333333333333333----------------0000000000000000-|

G:--------------------------------------------------------------------------------------|

D:--------------------------------------------------------------------------------------|

A:-----------------3333333333333333-----------------------------------------------------|x1

E:-1111111111111111----------------3333333333333333111111110----------------------------|

Repeat:

Chorus

Outro

G:------------------------------------------------------------------|

D:-----------------5555555555555555---------------------------------|

A:-3333333333333333--------------------------------7777777777777777-|x1

E:---------------------------------5555555555555555-----------------|

G:------------------------------------------------------------------|

D:-33333333333333335555555555553-3-3-----------3-3-3----------------|

A:-----------------------------------3~~~------------3~~~-----------|x1

E:------------------------------------------------------------------|

Taken from The BassMasta -- http://www.tabs-database.com

Get this song at:  amazon.com sheetmusicplus.com

Share your thoughts

0 Comments found