No Use for a Name

No Use for a Name - Leave It Behind guitar tab

-------------------------------------------------------------------------------------------------------------------

LEAVE IT BEHIND - No Use For A Name

-------------------------------------------------------------------------------------------------------------------

By: Rambozo

e-|-----------------------------------------------------------------

B-|-----------------------------------------------------------------

G-|-----------------------------------------------------------------

D-|-11-11-11-11-11-11-11-11-10-10-10-10-10-10-10-10-8-8-8-8-8-8-8-8-

A-|--9--9--9--9--9--9--9--9--8--8--8--8--8--8--8--8-6-6-6-6-6-6-6-6-

E-|-----------------------------------------------------------------

e-|-----------------------------------------------------------------

B-|-----------------------------------------------------------------

G-|-----------------------------------------------------------------

D-|-7-7-7-7-7-7-7-7-11-11-11-11-11-11-11-11-10-10-10-10-10-10-10-10-

A-|-5-5-5-5-5-5-5-5--9--9--9--9--9--9--9--9--8--8--8--8--8--8--8--8-

E-|-----------------------------------------------------------------

e-|---------------------------------|

B-|---------------------------------|

G-|---------------------------------|

D-|-8-8-8-8-8-8-8-8-7-7-7-7-7-7-7-7-|

A-|-6-6-6-6-6-6-6-6-5-5-5-5-5-5-5-5-|

E-|---------------------------------|

e-|-----------------------------------------------------------------

B-|-----------------------------------------------------------------

G-|-----------------------------------------------------------------

D-|-7-7-----8-8-----7-7-----8-8-----7-7-----8-8-----7-7-------------

A-|-5-5-8-8-6-6-5-5-5-5-8-8-6-6-5-5-5-5-8-8-6-6-5-5-5-5-8-8-10-10-10

E-|-----6-6-----3-3-----6-6-----3-3-----6-6-----3-3-----6-6--8--8--8

e-|--------------------------------|

B-|--------------------------------|

G-|--------------------------------|

D-|----------------8-8-8-8-8-8-8-8-|

A-|-10-10-10-10-10-6-6-6-6-6-6-6-6-|

E-|--8--8--8--8--8-----------------|

e-|-----------------------------------------------------------------

B-|-----------------------------------------------------------------

G-|-----------------------------------------------------------------

D-|-----------------------------------------------------------------

A-|-3-3-3-3-3-3-3-3-7-7-7-7-7-7-7-7-6-6-6-6-6-6-6-6-5-5-5-5-8-8-8-8-

E-|-1-1-1-1-1-1-1-1-5-5-5-5-5-5-5-5-4-4-4-4-4-4-4-4-3-3-3-3-6-6-6-6-

e-|-----------------------------------------------------------------|

B-|-----------------------------------------------------------------|

G-|-----------------------------------------------------------------|

D-|-----------------------------------------------------------------|

A-|-3-3-3-3-3-3-3-3-7-7-7-7-7-7-7-7-6-6-6-6-6-6-6-6-5-5-5-5-4-4-4-4-|

E-|-1-1-1-1-1-1-1-1-5-5-5-5-5-5-5-5-4-4-4-4-4-4-4-4-3-3-3-3-2-2-2-2-|

e-|-----------------------------------------------------------------|

B-|-----------------------------------------------------------------|

G-|-----------------------------------------------------------------|

D-|-------------6-6-------------6-6-------------6-6-------------6-6-|

A-|-3-3-6-6-8-8-4-4-3-3-6-6-8-8-4-4-3-3-6-6-8-8-4-4-3-3-6-6-8-8-4-4-|

E-|-1-1-4-4-6-6-----1-1-4-4-6-6-----1-1-4-4-6-6-----1-1-4-4-6-6-----|

e-|---------------------------------|

B-|---------------------------------|

G-|---------------------------------|

D-|---------8-8-8-8---------6-6-----|

A-|-3-3-3-3-6-6-6-6-6-6-6-6-4-4-6-6-|

E-|-1-1-1-1---------4-4-4-4-----4-4-|

e-|-----------------------------------------------------------------

B-|-----------------------------------------------------------------

G-|-----------------------------------------------------------------

D-|-11-11-11-11-11-11-11-11-10-10-10-10-10-10-10-10-8-8-8-8-8-8-8-8-

A-|--9--9--9--9--9--9--9--9--8--8--8--8--8--8--8--8-6-6-6-6-6-6-6-6-

E-|-----------------------------------------------------------------

e-|-----------------------------------------------------------------

B-|-----------------------------------------------------------------

G-|-----------------------------------------------------------------

D-|-7-7-7-7-7-7-7-7-11-11-11-11-11-11-11-11-10-10-10-10-10-10-10-10-

A-|-5-5-5-5-5-5-5-5--9--9--9--9--9--9--9--9--8--8--8--8--8--8--8--8-

E-|-----------------------------------------------------------------

e-|---------------------------------|

B-|---------------------------------|

G-|---------------------------------|

D-|-8-8-8-8-8-8-8-8-7-7-7-7-7-7-7-7-|

A-|-6-6-6-6-6-6-6-6-5-5-5-5-5-5-5-5-|

E-|---------------------------------|

e-|-----------------------------------------------------------------

B-|-----------------------------------------------------------------

G-|-----------------------------------------------------------------

D-|-7-7-----8-8-----7-7-----8-8-----7-7-----8-8-----7-7-------------

A-|-5-5-8-8-6-6-5-5-5-5-8-8-6-6-5-5-5-5-8-8-6-6-5-5-5-5-8-8-10-10-10

E-|-----6-6-----3-3-----6-6-----3-3-----6-6-----3-3-----6-6--8--8--8

e-|--------------------------------|

B-|--------------------------------|

G-|--------------------------------|

D-|----------------8-8-8-8-8-8-8-8-|

A-|-10-10-10-10-10-6-6-6-6-6-6-6-6-|

E-|--8--8--8--8--8-----------------|

e-|-----------------------------------------------------------------

B-|-----------------------------------------------------------------

G-|-----------------------------------------------------------------

D-|-----------------------------------------------------------------

A-|-3-3-3-3-3-3-3-3-7-7-7-7-7-7-7-7-6-6-6-6-6-6-6-6-5-5-5-5-8-8-8-8-

E-|-1-1-1-1-1-1-1-1-5-5-5-5-5-5-5-5-4-4-4-4-4-4-4-4-3-3-3-3-6-6-6-6-

e-|-----------------------------------------------------------------|

B-|-----------------------------------------------------------------|

G-|-----------------------------------------------------------------|

D-|-----------------------------------------------------------------|

A-|-3-3-3-3-3-3-3-3-7-7-7-7-7-7-7-7-6-6-6-6-6-6-6-6-5-5-5-5-4-4-4-4-|

E-|-1-1-1-1-1-1-1-1-5-5-5-5-5-5-5-5-4-4-4-4-4-4-4-4-3-3-3-3-2-2-2-2-|

e-|-----------------------------------------------------------------|

B-|-----------------------------------------------------------------|

G-|-----------------------------------------------------------------|

D-|-------------6-6-------------6-6-------------6-6-------------6-6-|

A-|-3-3-6-6-8-8-4-4-3-3-6-6-8-8-4-4-3-3-6-6-8-8-4-4-3-3-6-6-8-8-4-4-|

E-|-1-1-4-4-6-6-----1-1-4-4-6-6-----1-1-4-4-6-6-----1-1-4-4-6-6-----|

e-|---------------------------------|

B-|---------------------------------|

G-|---------------------------------|

D-|---------8-8-8-8---------6-6-----|

A-|-3-3-3-3-6-6-6-6-6-6-6-6-4-4-6-6-|

E-|-1-1-1-1---------4-4-4-4-----4-4-|

e-|-----------------------------------------------------------------|

B-|-----------------------------------------------------------------|

G-|-----------------------------------------------------------------|

D-|-------------6-6-------------6-6-------------6-6-------------6-6-|

A-|-3-3-6-6-8-8-4-4-3-3-6-6-8-8-4-4-3-3-6-6-8-8-4-4-3-3-6-6-8-8-4-4-|

E-|-1-1-4-4-6-6-----1-1-4-4-6-6-----1-1-4-4-6-6-----1-1-4-4-6-6-----|

e-|---------------------------------|

B-|---------------------------------|

G-|---------------------------------|

D-|---------8-8-8-8---------6-6-----|

A-|-3-3-3-3-6-6-6-6-6-6-6-6-4-4-6-6-|

E-|-1-1-1-1---------4-4-4-4-----4-4-|

=====================================================================

Get this song at:  amazon.com sheetmusicplus.com

Share your thoughts

0 Comments found