No Use for a Name

No Use for a Name - Leave It Behind bass tab

Song: Leave it Behind

Album: Leche con Carne

Artist: No Use For A Name

Intro:

G:----------------------------------|

D:-----------------------------5--|

A:------6------5------5-------|

E:-1------3------6------------|

Verse:

G:-----------------| --------------------------------------|

D:-----------------| -------------5----------------------|

A:--5----5-----| X2 --5----5-----5----3--6-----|

E:------6----3-| ------6------------6--------------|

Pre Chorus:

G:-----------------------------------------------------|

D:-----------------------------------------------------|

A:-----------------------------------------------------|

E:-1--5--4--3--6--1--5--4--3--2---|

Chorus:

G:----------------------------------| ------------------------------|

D:----------------------------------| ------------------------------|

A:-----------------1111---4444--| X4 ----------------4-----------|

E:--1111---4444-----------------| --1--3--4-----11111---|

Intro

Verse

Pre Chorus

Chorus X2

Taken from The BassMasta -- http://www.tabs-database.com

Get this song at:  amazon.com sheetmusicplus.com

Share your thoughts

0 Comments found