No Use for a Name

No Use for a Name - It Wont Happen Again guitar tab

-------------------------------------------------------------------------------

IT WON'T HAPPEN AGAIN - No Use For A Name

-------------------------------------------------------------------------------

By: Jeff Munt

e-|-----3---3-------3---3---------3---3-------3---3-----

B-|---5---5---5---5---5---5-----5---5---5---5---5---5---

G-|-4-----------4-------------4-----------4-------------

D-|-----------------------------------------------------

A-|-----------------------------------------------------

E-|-----------------------------------------------------

e-|-----2---2-------2---2---------2---2-------2---2-----

B-|---4---4---4---4---4---4-----4---4---4---4---4---4---

G-|-3-----------3-------------3-----------3-------------

D-|-----------------------------------------------------

A-|-----------------------------------------------------

E-|-----------------------------------------------------

e-|-----3---3-------3---3---------3---3-------3---3-----

B-|---5---5---5---5---5---5-----5---5---5---5---5---5---

G-|-4-----------4-------------4-----------4-------------

D-|-----------------------------------------------------

A-|-----------------------------------------------------

E-|-----------------------------------------------------

e-|-----2---2-------2---2---------2---2-------2---2-----

B-|---4---4---4---4---4---4-----4---4---4---4---4---4---

G-|-3-----------3-------------3-----------3-------------

D-|-----------------------------------------------------

A-|-----------------------------------------------------

E-|-----------------------------------------------------

e-|-----3---3-------3---3---------3---3-------3---3-----

B-|---5---5---5---5---5---5-----5---5---5---5---5---5---

G-|-4-----------4-------------4-----------4-------------

D-|-----------------------------------------------------

A-|-----------------------------------------------------

E-|-----------------------------------------------------

e-|-----2---2-------2---2---------2---2-------2---2-----

B-|---4---4---4---4---4---4-----4---4---4---4---4---4---

G-|-3-----------3-------------3-----------3-------------

D-|-----------------------------------------------------

A-|-----------------------------------------------------

E-|-----------------------------------------------------

e-|-----3---3-------3---3---------3---3-------3---3-----

B-|---5---5---5---5---5---5-----5---5---5---5---5---5---

G-|-4-----------4-------------4-----------4-------------

D-|-----------------------------------------------------

A-|-----------------------------------------------------

E-|-----------------------------------------------------

e-|-----2---2-------2---2---------2---2-------2---2-----|

B-|---4---4---4---4---4---4-----4---4---4---4---4---4---|

G-|-3-----------3-------------3-----------3-------------|

D-|-----------------------------------------------------|

A-|-----------------------------------------------------|

E-|-----------------------------------------------------|

e-|-----------------------------------------------------------------

B-|-----------------------------------------------------------------

G-|-----------------------------------------------------------------

D-|---------------------------------8-8-8-8-8-8-8-8-8-8-8-8-8-8-8-8-

A-|-2-x-x-x-2-x-x-x-2-x-x-x-2-x-x-x-6-6-6-6-6-6-6-6-6-6-6-6-6-6-6-6-

E-|-0-x-x-x-0-x-x-x-0-x-x-x-0-x-x-x---------------------------------

e-|-----------------------------------------------------------------

B-|-----------------------------------------------------------------

G-|-----------------------------------------------------------------

D-|---------------------------------8-8-8-8-8-8-8-8-8-8-8-8-8-8-8-8-

A-|-2-x-x-x-2-x-x-x-2-x-x-x-2-x-x-x-6-6-6-6-6-6-6-6-6-6-6-6-6-6-6-6-

E-|-0-x-x-x-0-x-x-x-0-x-x-x-0-x-x-x---------------------------------

e-|---------------------------------------------2-------2-------2-------2---

B-|-------------------------------------------4---4---4---4---4---4---4---4-

G-|-----------------------------------0-2-3-3-------3-------3-------3-------

D-|-----------------------------0-2-3---------------------------------------

A-|-2-x-x-x-2-x-x-x-------0-2-3---------------------------------------------

E-|-0-x-x-x-0-x-x-x-0-2-3---------------------------------------------------

e-|-------------------------------------2-------2-------2-------2---

B-|-----------------------------------4---4---4---4---4---4---4---4-

G-|---------------------------------3-------4-------5-------6-------

D-|-----------------------------------------------------------------

A-|-2-x-x-x-2-x-x-x-2-x-x-x-2-x-x-x---------------------------------

E-|-0-x-x-x-0-x-x-x-0-x-x-x-0-x-x-x---------------------------------

e-|-------------------------------------2-------2-------2-------2---

B-|-----------------------------------4---4---4---4---4---4---4---4-

G-|---------------------------------3-------3-------3-------3-------

D-|-----------------------------------------------------------------

A-|-2-x-x-x-2-x-x-x-2-x-x-x-2-x-x-x---------------------------------

E-|-0-x-x-x-0-x-x-x-0-x-x-x-0-x-x-x---------------------------------

e-|-------------------------------------2-------2-------2-------2-----|

B-|-----------------------------------4---4---4---4---4---4---4---4---|

G-|---------------------------------3-------3-------3-------3---------|

D-|-------------------------------------------------------------------|

A-|-2-x-x-x-2-x-x-x-2-x-x-x-2-x-x-x---------------------------------2-|

E-|-0-x-x-x-0-x-x-x-0-x-x-x-0-x-x-x---------------------------------0-|

e-|---|-----------------------------------------------------------------

B-|---|-----------------------------------------------------------------

G-|---|-----------------------------------------------------------------

D-|---|-------------5-5-------------5-5-------------5-5-------------5-5-

A-|-5-|-5-5-8-8-7-7-3-3-5-5-8-8-7-7-3-3-5-5-8-8-7-7-3-3-5-5-8-8-7-7-3-3-

E-|-3-|-3-3-6-6-5-5-----3-3-6-6-5-5-----3-3-6-6-5-5-----3-3-6-6-5-5-----

e-|-----------------------------------------------------------------|

B-|-----------------------------------------------------------------|

G-|-----------------------------------------------------------------|

D-|-------------5-5-------------5-5-------------5-5-------------5-5-|

A-|-5-5-8-8-7-7-3-3-5-5-8-8-7-7-3-3-5-5-8-8-7-7-3-3-5-5-8-8-7-7-3-3-|

E-|-3-3-6-6-5-5-----3-3-6-6-5-5-----3-3-6-6-5-5-----3-3-6-6-5-5-----|

e-|-----------------------------------------------------------------

B-|-----------------------------------------------------------------

G-|-----------------------------------------------------------------

D-|-----------------------------------------------------------------

A-|-4-4-4-7-6-6-6-6-2-2-2-2-2-2-2-2-4-4-4-7-6-6-6-6-2-2-2-2-2-2-2-2-

E-|-2-2-2-5-4-4-4-4-0-0-0-0-0-0-0-0-2-2-2-5-4-4-4-4-0-0-0-0-0-0-0-0-

e-|-----------------------------------------------------------------|

B-|-----------------------------------------------------------------|

G-|-----------------------------------------------------------------|

D-|-----------------------------------------------------------------|

A-|-4-4-4-7-6-6-6-6-2-2-2-2-2-2-2-2-4-4-4-7-6-6-6-6-2-2-2-2-2-2-2-2-|

E-|-2-2-2-5-4-4-4-4-0-0-0-0-0-0-0-0-2-2-2-5-4-4-4-4-0-0-0-0-0-0-0-0-|

e-|-------------------------------------------------------------------

B-|-------------------------------------------------------------------

G-|-------------------------------------------------------------------

D-|-------------------------------------8-8-8-------------------------

A-|-x-x-x-x-5-5-x-x-x-x-8-8-x-x-x-x-7-7-6-6-6-x-x-x-x-5-5-x-x-x-x-8-8-

E-|-x-x-x-x-3-3-x-x-x-x-6-6-x-x-x-x-5-5-------x-x-x-x-3-3-x-x-x-x-6-6-

e-|---------------------------------------------------------------------

B-|---------------------------------------------------------------------

G-|---------------------------------------------------------------------

D-|-------------8-8-8-------------------------------------8-8-8---------

A-|-x-x-x-x-7-7-6-6-6-x-x-x-x-5-5-x-x-x-x-8-8-x-x-x-x-7-7-6-6-6-x-x-x-x-

E-|-x-x-x-x-5-5-------x-x-x-x-3-3-x-x-x-x-6-6-x-x-x-x-5-5-------x-x-x-x-

e-|----------------------------------------------------------|

B-|----------------------------------------------------------|

G-|----------------------------------------------------------|

D-|-----------------------------8-8-8--8-8-8--8-8-8--8-8-8-7-|

A-|-5-5-x-x-x-x-8-8-x-x-x-x-7-7-6-6-6--6-6-6--6-6-6--6-6-6-5-|

E-|-3-3-x-x-x-x-6-6-x-x-x-x-5-5------------------------------|

e-|---------------------------------------------------------------------

B-|---------------------------------------------------------------------

G-|---------------------------------------------------------------------

D-|-------------------------------8-8-------------------------------8-8-

A-|-7-7-10-10-7-7-10-10-7-7-10-10-6-6-7-7-10-10-7-7-10-10-7-7-10-10-6-6-

E-|-5-5--8--8-5-5--8--8-5-5--8--8-----5-5--8--8-5-5--8--8-5-5--8--8-----

e-|---------------------------------------------------------------------

B-|---------------------------------------------------------------------

G-|---------------------------------------------------------------------

D-|-------------------------------8-8-------------------------------8-8-

A-|-7-7-10-10-7-7-10-10-7-7-10-10-6-6-7-7-10-10-7-7-10-10-7-7-10-10-6-6-

E-|-5-5--8--8-5-5--8--8-5-5--8--8-----5-5--8--8-5-5--8--8-5-5--8--8-----

e-|-----------------------------------|

B-|-----------------------------------|

G-|-----------------------------------|

D-|-------------------------------8-8-|

A-|-7-7-10-10-7-7-10-10-7-7-10-10-6-6-|

E-|-5-5--8--8-5-5--8--8-5-5--8--8-----|

e-|-----------------------------------------------------------------

B-|-----------------------------------------------------------------

G-|-----------------------------------------------------------------

D-|-----------------------------------------------------------------

A-|-4-4-4-7-6-6-6-6-2-2-2-2-2-2-2-2-4-4-4-7-6-6-6-6-2-2-2-2-2-2-2-2-

E-|-2-2-2-5-4-4-4-4-0-0-0-0-0-0-0-0-2-2-2-5-4-4-4-4-0-0-0-0-0-0-0-0-

e-|-----------------------------------------------------------------|

B-|-----------------------------------------------------------------|

G-|-----------------------------------------------------------------|

D-|-----------------------------------------------------------------|

A-|-4-4-4-7-6-6-6-6-2-2-2-2-2-2-2-2-4-4-4-7-6-6-6-6-2-2-2-2-2-2-2-2-|

E-|-2-2-2-5-4-4-4-4-0-0-0-0-0-0-0-0-2-2-2-5-4-4-4-4-0-0-0-0-0-0-0-0-|

=====================================================================

Get this song at:  amazon.com sheetmusicplus.com

Share your thoughts

0 Comments found