No Use for a Name

No Use for a Name - International You Day guitar tab

Intro 1

e|----------------------------------------------------------------------|

B|----------------------------------------------------------------------|

G|--8-7-8-7-10-8---------12-10-12-10-13-12-7-8-10-----------------------|

D|---------------10-8-10------------------------------------------------|

A|----------------------------------------------------------------------|

D|----------------------------------------------------------------------|

Intro 2

e|----------------------------------------------------------------------|

B|----------------------------------------------------------------------|

G|--8-7-8-7-10-8---------12-10-12-10-13-12-7-8-10-----------------------|

D|--8-7-8-7-10-8-10-8-10-12-10-12-10-13-12-7-8-10-----------------------|

A|--6-5-6-5--8-6-10-8-10-10--8-10--8-11-10-5-6--8-----------------------|

D|---------------10-8-10------------------------------------------------|

Verse

*=play x8

e|----------------------------------------------------------------------|

B|-----------------*--*----------------------*--*-----------------------|

G|----*---*--*--*-8--8---*--*---*---*--*--*-8--8---*--------------------|

D|--10--10--6--6--8--8--8--8--10--10--6--6--8--8--8--8-------------

Get this song at:  amazon.com sheetmusicplus.com

Share your thoughts

0 Comments found