No Use for a Name

No Use for a Name - Insecurity Alert guitar tab

Insecurity Alert

No Use For A Name

Composer: Tony Sly

Tabbed By: Chris Fairweather

Dropped D Tuning

Intro

Gtr 1

e---------------|

b---------------|

g---2-3--5-3-2--|

d-0-2-3--5-3-2--|

a-0-0-1--3-1-0--|

d-0-------------|x2

Gtr 2

e-----------------------------------------------------------------------------|

b-----------------------------------------------------------------------------|

g-7-7-7-7-7-7-7-7/109-9-9-9-9-9-9-9/121010101010101010/12101010106-6-6-6/7-|

d-----------------------------------------------------------------------------|

a-5-5-5-5-5-5-5-5/8-7-7-7-7-7-7-7-7/108-8-8-8-8-8-8-8-/108-8-8-8-4-4-4-4/5-|

d-----------------------------------------------------------------------------|x2

Verse 1

Both Gtrs

e---------|

b---------|

g---2-3---|

d-0-2-3-3-|

a-0-0-1-3-|

d-0-----3-|x7(Palm Muted the first 4 times, Open the last 3)

Pre Chorus 1

Both Gtrs

e-----------------|

b-----------------|

g-2-2-2-2-2-2-2-3-|

d-2-2-2-2-2-2-2-3-|

a-0-0-0-0-0-0-0-1-|

d-----------------| Play this once at the end of the verse, let the last note (Bb) ring open

and play the first 7 notes (A) palm muted.

Chorus 1

Gtr 1

e-----------------|

b-----------------|

g---5---5-3-3---5-|

d-3-5-0-5-3-3-5-5-|

a-3-3-0-3-1-0-5-3-|

d-3---0-------5---|x2(On the last time, palm mute the second last note (G) and then

let the last note (C) ring open)

Gtr 2

e---------------------------------|

b---------------------------------|

g---------10-10-10-9--9/10-9/107-|

d-0-0-0-0-------------------------|

a---------------------7/8--7/8-5-|

d---------------------------------|(Only play this during the last 2 bars of the Chorus

along with Guitar 1 palm muting and then letting ring)

Verse 2

This is almost the same as Verse 1, but there is no guitar for the first 2 bars.

At the beginning, Guitar 1 lets a (D5) ring

e---|

b---|

g---|

d-0-|

a-0-|

d-0-|

D5

And Guitar 2 plays those short notes from the Intro and slowly fades.

e-------------|

b-------------|

g-7-7-7-7-7-7-|

d-------------|

a-5-5-5-5-5-5-|

d-------------|

Then both Guitars play the last 2 bars from Verse 1 again.

Chorus 2

Play the same thing as in Chorus 1

Bridge

Both Gtrs

e-------------|

b-------------|

g-2---3-----5-|

d-2-0-3-3-5-5-|

a-0-0-1-3-5-3-|

d---0---3-5---|x1

Outro

Gtr 1

e---------|

b---------|

g---2-3---|

d-0-2-3-3-|

a-0-0-1-3-|

d-0-----3-|x8(Palm mute first 4 times, play second 4 times open)

Gtr 2

e---------|

b---------|

g---2-3---|

d-0-2-3-3-|

a-0-0-1-3-|

d-0-----3-|x4(Play palm muted part along with Guitar 1)

Gtr 2 Cont'd

e-------------|

b---10~11~----|

g-7~------10~-|

d-------------|

a-------------|

d-------------|x4

On the last time of the outro, all instruments end on their 3rd note 3/4ths of the

way through the last time.

Get this song at:  amazon.com sheetmusicplus.com

Share your thoughts

0 Comments found