No Use for a Name

No Use for a Name - Hazardous To Yourself guitar tab

-*-*-*-*-*-*-*-*-*-*-*-*-*-*-*-*-*-*-*-*-*-*-*-*-*-*-*-*-*-*-*-*-*-*-*-

Song: hazardous to yourself

Artist: no use for a name

Author: Roy Stevenson (are_you_done@yahoo.com)

Tuning: standard

-*-*-*-*-*-*-*-*-*-*-*-*-*-*-*-*-*-*-*-*-*-*-*-*-*-*-*-*-*-*-*-*-*-*-*-

e-|------------------------------------------------------------------------

B-|------------------------------------------------------------------------

G-|------------------------------------------------------------------------

D-|-9-9-9-9---------------------12-12-12-12-7-7-7-7---------------10-10-10-

A-|-7-7-7-7-10-10-10-10-9-9-9-9-10-10-10-10-5-5-5-5-8-8-8-8-7-7-7--8--8--8-

E-|----------8--8--8--8-7-7-7-7---------------------6-6-6-6-5-5-5----------

e-|------------------------------------------------------------------------|

B-|------------------------------------------------------------------------|

G-|------------------------------------------------------------------------|

D-|-9-9-9-9---------------------12-12-12-12-7-7-7-7---------------10-10-10-|

A-|-7-7-7-7-10-10-10-10-9-9-9-9-10-10-10-10-5-5-5-5-8-8-8-8-7-7-7--8--8--8-|

E-|----------8--8--8--8-7-7-7-7---------------------6-6-6-6-5-5-5----------|

e-|-------------------------------------------------------------------------

B-|-------------------------------------------------------------------------

G-|-------------------------------------------------------------------------

D-|-9--9-9-9-9-9-9-9-9-12-12-12-12--------------9--9-9-9-9-9-9-9-9-12-12-12-

A-|-7--7-7-7-7-7-7-7-7-10-10-10-10-12-12-12-12--7--7-7-7-7-7-7-7-7-10-10-10-

E-|--------------------------------10-10-10-10------------------------------

e-|----------------|-----------------------------------------|

B-|----------------|-----------------------------------------|

G-|----------------|-----------------------------------------|

D-|-12-------------|-----------------------------------------|

A-|-10-12-12-12-12-|-7-7-7-7-7-7-7-7-10-10-10-10-10-10-10-10-|

E-|----10-10-10-10-|-5-5-5-5-5-5-5-5--8--8--8--8--8--8--8--8-|

e-|------------------------------------------------------------------------|

B-|------------------------------------------------------------------------|

G-|------------------------------------------------------------------------|

D-|-9-9-9-9---------------------12-12-12-12-7-7-7-7---------------10-10-10-|

A-|-7-7-7-7-10-10-10-10-9-9-9-9-10-10-10-10-5-5-5-5-8-8-8-8-7-7-7--8--8--8-|

E-|----------8--8--8--8-7-7-7-7---------------------6-6-6-6-5-5-5----------|

e-|-------------------------------------------------------------------------

B-|-------------------------------------------------------------------------

G-|-------------------------------------------------------------------------

D-|-9--9-9-9-9-9-9-9-9-12-12-12-12--------------9--9-9-9-9-9-9-9-9-12-12-12-

A-|-7--7-7-7-7-7-7-7-7-10-10-10-10-12-12-12-12--7--7-7-7-7-7-7-7-7-10-10-10-

E-|--------------------------------10-10-10-10------------------------------

e-|----------------|---------------------------------------------------------

B-|----------------|---------------------------------------------------------

G-|----------------|---------------------------------------------------------

D-|-12-------------|-----------------------------------------9-9-9-9-9-9-9-9-

A-|-10-12-12-12-12-|-7-7-7-7-7-7-7-7-10-10-10-10-10-10-10-10-7-7-7-7-7-7-7-7-

E-|----10-10-10-10-|-5-5-5-5-5-5-5-5--8--8--8--8--8--8--8--8-----------------

e-|-----------------|-----------------------------------------------------|

B-|-----------------|-----------------------------------------------------|

G-|-----------------|-----------------------------------------------------|

D-|-7-7-7-7-7-7-7-7-|-2-2-2-2-4-5-5-------------2-2-2-2-4-5-5-------------|

A-|-5-5-5-5-5-5-5-5-|-0-0-0-0-2-3-3-5-5-5-3-3-3-0-0-0-0-2-3-3-5-5-5-3-3-3-|

E-|-----------------|---------------3-3-3-1-1-1---------------3-3-3-1-1-1-|

e-|-----------------------------------------------------------------|

B-|-----------------------------------------------------------------|

G-|-----------------------------------------------------------------|

D-|-----------------------------------------------------------------|

A-|-4-4-5-5-4-4-5-5-4-4-5-5-2-2-2-2-4-4-5-5-4-4-5-5-4-4-5-5-2-2-2-2-|

E-|-2-2-3-3-2-2-3-3-2-2-3-3-0-0-0-0-2-2-3-3-2-2-3-3-2-2-3-3-0-0-0-0-|

e-|-----------------------------------------------------------------|

B-|-----------------------------------------------------------------|

G-|-----------------------------------------------------------------|

D-|-------------------------7-7-7-7-7-7-7-7-------------------------|

A-|-10-10-10-10-10-10-10-10-5-5-5-5-5-5-5-5-9-9-9-9-9-9-9-9-5-5-4-4-|

E-|--8--8--8--8--8--8--8--8-----------------7-7-7-7-7-7-7-7-3-3-2-2-|

e-|-12^~-10h12p10-------------10-------10-------------------------------------

B-|---------------12-10-10h12----10h12----------------------------------------

G-|---------------------------------------11-12-11-12-10-12-10-12-10-11-12-12-

D-|---------------------------------------------------------------------------

A-|---------------------------------------------------------------------------

E-|---------------------------------------------------------------------------

e-|-------------------------------10-12^-12^-12^-12^-12^-10/0-|

B-|-------10-10-12-12-10-11-12-12-----------------------------|

G-|-10-11-----------------------------------------------------|

D-|-----------------------------------------------------------|

A-|-----------------------------------------------------------|

E-|-----------------------------------------------------------|

e-|-------------------------------------------------------------------------

B-|-------------------------------------------------------------------------

G-|-------------------------------------------------------------------------

D-|-9--9-9-9-9-9-9-9-9-12-12-12-12--------------9--9-9-9-9-9-9-9-9-12-12-12-

A-|-7--7-7-7-7-7-7-7-7-10-10-10-10-12-12-12-12--7--7-7-7-7-7-7-7-7-10-10-10-

E-|--------------------------------10-10-10-10------------------------------

e-|----------------|-----------------------------------------|

B-|----------------|-----------------------------------------|

G-|----------------|-----------------------------------------|

D-|-12-------------|-----------------------------------------|

A-|-10-12-12-12-12-|-7-7-7-7-7-7-7-7-10-10-10-10-10-10-10-10-|

E-|----10-10-10-10-|-5-5-5-5-5-5-5-5--8--8--8--8--8--8--8--8-|

e-|------------------------------------------------------------------------|

B-|------------------------------------------------------------------------|

G-|------------------------------------------------------------------------|

D-|-9-9-9-9---------------------12-12-12-12-7-7-7-7---------------10-10-10-|

A-|-7-7-7-7-10-10-10-10-9-9-9-9-10-10-10-10-5-5-5-5-8-8-8-8-7-7-7--8--8--8-|

E-|----------8--8--8--8-7-7-7-7---------------------6-6-6-6-5-5-5----------|

e-|---------------------------------------------------------

B-|---------------------------------------------------------

G-|---------------------------------------------------------

D-|-9-9-9-9-9-9-9-9-9-9-9-9-9-9-9-9-12-12-12-12-------------

A-|-7-7-7-7-7-7-7-7-7-7-7-7-7-7-7-7-10-10-10-10-12-12-12-12-

E-|---------------------------------------------10-10-10-10-

e-|---------------------------------------------------------|

B-|---------------------------------------------------------|

G-|---------------------------------------------------------|

D-|-9-9-9-9-9-9-9-9-9-9-9-9-9-9-9-9-12-12-12-12-------------|

A-|-7-7-7-7-7-7-7-7-7-7-7-7-7-7-7-7-10-10-10-10-12-12-12-12-|

E-|---------------------------------------------10-10-10-10-|

e-|---------------------------------------------------------

B-|---------------------------------------------------------

G-|---------------------------------------------------------

D-|-----------------------------------------9-9-9-9-9-9-9-9-

A-|-7-7-7-7-7-7-7-7-10-10-10-10-10-10-10-10-7-7-7-7-7-7-7-7-

E-|-5-5-5-5-5-5-5-5--8--8--8--8--8--8--8--8-----------------

e-|-----------------|-----------------------------------------------------|

B-|-----------------|-----------------------------------------------------|

G-|-----------------|-----------------------------------------------------|

D-|-7-7-7-7-7-7-7-7-|-2-2-2-2-4-5-5-------------2-2-2-2-4-5-5-------------|

A-|-5-5-5-5-5-5-5-5-|-0-0-0-0-2-3-3-5-5-5-3-3-3-0-0-0-0-2-3-3-5-5-5-3-3-3-|

E-|-----------------|---------------3-3-3-1-1-1---------------3-3-3-1-1-1-|

e-|-----------------------------------------------------------------|

B-|-----------------------------------------------------------------|

G-|-----------------------------------------------------------------|

D-|-----------------------------------------------------------------|

A-|-4-4-5-5-4-4-5-5-4-4-5-5-2-2-2-2-4-4-5-5-4-4-5-5-4-4-5-5-2-2-2-2-|

E-|-2-2-3-3-2-2-3-3-2-2-3-3-0-0-0-0-2-2-3-3-2-2-3-3-2-2-3-3-0-0-0-0-|

e-|-------------------------------------------------------------------------|

B-|-------------------------------------------------------------------------|

G-|-------------------------------------------------------------------------|

D-|-------------7-7-7-7-----------------------------7-7-7-7-----------------|

A-|-10-10-10-10-5-5-5-5-5-5-5-5-4-4-4-4-10-10-10-10-5-5-5-5-9-9-9-9-5-5-4-4-|

E-|--8--8--8--8---------3-3-3-3-2-2-2-2--8--8--8--8---------7-7-7-7-3-3-2-2-|

e-|------------------------------------------------------------------------

B-|------------------------------------------------------------------------

G-|------------------------------------------------------------------------

D-|-9-9-9-9---------------------12-12-12-12-7-7-7-7---------------10-10-10-

A-|-7-7-7-7-10-10-10-10-9-9-9-9-10-10-10-10-5-5-5-5-8-8-8-8-7-7-7--8--8--8-

E-|----------8--8--8--8-7-7-7-7---------------------6-6-6-6-5-5-5----------

e-|------------------------------------------------------------------------|

B-|------------------------------------------------------------------------|

G-|------------------------------------------------------------------------|

D-|-9-9-9-9---------------------12-12-12-12-7-7-7-7---------------10-10-10-|

A-|-7-7-7-7-10-10-10-10-9-9-9-9-10-10-10-10-5-5-5-5-8-8-8-8-7-7-7--8--8--8-|

E-|----------8--8--8--8-7-7-7-7---------------------6-6-6-6-5-5-5----------|

====================================================================

Get this song at:  amazon.com sheetmusicplus.com

Share your thoughts

0 Comments found