No Use for a Name

No Use for a Name - Hail To The King guitar tab

-------------------------------------------------------------------------------

HAIL TO THE KING - No Use For A Name

-------------------------------------------------------------------------------

By: Jeff Munt

e-|-------------------------------------------------------------------------

B-|-------------------------------------------------------------------------

G-|-9-9-9-9-11-11-12-12-14-14-12-12-11-11-9-9--9-9-9-9-11-11-12-12-14-14-12-

D-|-------------------------------------------------------------------------

A-|-7-7-7-7--9--9-10-10-12-12-10-10--9--9-7-7--7-7-7-7--9--9-10-10-12-12-10-

E-|-------------------------------------------------------------------------

e-|------------------------------------------------------------------------

B-|------------------------------------------------------------------------

G-|-12-11-11-9-9--9-9-9-9-11-11-12-12-14-14-12-12-11-11-9-9-8-8-8-8-8-8-8-8

D-|------------------------------------------------------------------------

A-|-10--9--9-7-7--7-7-7-7--9--9-10-10-12-12-10-10--9--9-7-7-6-6-6-6-6-6-6-6

E-|------------------------------------------------------------------------

e-|-------------------------

B-|-------------------------

G-|-11-11-11-11-11-11-11-11-

D-|-------------------------

A-|--9--9--9--9--9--9--9--9-

E-|-------------------------

e-|-------------------------------------------------------------------------

B-|-------------------------------------------------------------------------

G-|-9-9-9-9-11-11-12-12-14-14-12-12-11-11-9-9--9-9-9-9-11-11-12-12-14-14-12-

D-|-------------------------------------------------------------------------

A-|-7-7-7-7--9--9-10-10-12-12-10-10--9--9-7-7--7-7-7-7--9--9-10-10-12-12-10-

E-|-------------------------------------------------------------------------

e-|------------------------------------------------------------------------

B-|------------------------------------------------------------------------

G-|-12-11-11-9-9--9-9-9-9-11-11-12-12-14-14-12-12-11-11-9-9-8-8-8-8-8-8-8-8

D-|------------------------------------------------------------------------

A-|-10--9--9-7-7--7-7-7-7--9--9-10-10-12-12-10-10--9--9-7-7-6-6-6-6-6-6-6-6

E-|------------------------------------------------------------------------

e-|-------------------------

B-|-------------------------

G-|-11-11-11-11-11-11-11-11-

D-|-------------------------

A-|--9--9--9--9--9--9--9--9-

E-|-------------------------

e-|-------------------------------------------------------------------------

B-|-------------------------------------------------------------------------

G-|-9-9-9-9-11-11-12-12-14-14-12-12-11-11-9-9--9-9-9-9-11-11-12-12-14-14-12-

D-|-------------------------------------------------------------------------

A-|-7-7-7-7--9--9-10-10-12-12-10-10--9--9-7-7--7-7-7-7--9--9-10-10-12-12-10-

E-|-------------------------------------------------------------------------

e-|------------------------------------------------------------------------

B-|------------------------------------------------------------------------

G-|-12-11-11-9-9--9-9-9-9-11-11-12-12-14-14-12-12-11-11-9-9-8-8-8-8-8-8-8-8

D-|------------------------------------------------------------------------

A-|-10--9--9-7-7--7-7-7-7--9--9-10-10-12-12-10-10--9--9-7-7-6-6-6-6-6-6-6-6

E-|------------------------------------------------------------------------

e-|-------------------------

B-|-------------------------

G-|-11-11-11-11-11-11-11-11-

D-|-------------------------

A-|--9--9--9--9--9--9--9--9-

E-|-------------------------

e-|-------------------------------------------------------------------|

B-|-------------------------------------------------------------------|

G-|-9-9-9-9-9-9-9-9-7-7-7-7-7-7-7-7-5-5-5-5-5-5-5-5-4-4-4-4-7-7-7-7---|

D-|-----------------------------------------------------------------9-|

A-|-7-7-7-7-7-7-7-7-5-5-5-5-5-5-5-5-3-3-3-3-3-3-3-3-2-2-2-2-5-5-5-5-7-|

E-|-------------------------------------------------------------------|

e-|-------------------------------------------------------------

B-|-------------------------------------------------------------

G-|-------------------------------------------------------------

D-|-9-9-9-------------------------9-9-9-------------------------

A-|-7-7-7-9-9-7-7-5-5-5-5-7-7-7-7-7-7-7-9-9-7-7-5-5-5-5-7-7-7-7-

E-|-------7-7-5-5-3-3-3-3-5-5-5-5-------7-7-5-5-3-3-3-3-5-5-5-5-

e-|-------------------------------------------------------------|

B-|-------------------------------------------------------------|

G-|-------------------------------------------------------------|

D-|-9-9-9-------------------------9-9-9-------------------------|

A-|-7-7-7-9-9-7-7-5-5-5-5-7-7-7-7-7-7-7-9-9-7-7-5-5-5-5-7-7-7-7-|

E-|-------7-7-5-5-3-3-3-3-5-5-5-5-------7-7-5-5-3-3-3-3-5-5-5-5-|

e-|-----------------------------------------------------------------|

B-|-----------------------------------------------------------------|

G-|-----------------------------------------------------------------|

D-|-9-9-9-9-5---7-7-9-9-9-9-5---7-7-9-9-9-9-5---7-7-9-9-9-9-5---7-7-|

A-|-7-7-7-7-3-7-5-5-7-7-7-7-3-7-5-5-7-7-7-7-3-7-5-5-7-7-7-7-3-7-5-5-|

E-|-----------5---------------5---------------5---------------5-----|

e-|-------------------------------------------------------------

B-|-------------------------------------------------------------

G-|-------------------------------------------------------------

D-|-9-9-9-------------------------9-9-9-------------------------

A-|-7-7-7-9-9-7-7-5-5-5-5-7-7-7-7-7-7-7-9-9-7-7-5-5-5-5-7-7-7-7-

E-|-------7-7-5-5-3-3-3-3-5-5-5-5-------7-7-5-5-3-3-3-3-5-5-5-5-

e-|-------------------------------------------------------------|

B-|-------------------------------------------------------------|

G-|-------------------------------------------------------------|

D-|-9-9-9-------------------------9-9-9-------------------------|

A-|-7-7-7-9-9-7-7-5-5-5-5-7-7-7-7-7-7-7-9-9-7-7-5-5-5-5-7-7-7-7-|

E-|-------7-7-5-5-3-3-3-3-5-5-5-5-------7-7-5-5-3-3-3-3-5-5-5-5-|

e-|-----------------------------------------------------------------|

B-|-----------------------------------------------------------------|

G-|-----------------------------------------------------------------|

D-|-9-9-9-9-5---7-7-9-9-9-9-5---7-7-9-9-9-9-5---7-7-9-9-9-9-5---7-7-|

A-|-7-7-7-7-3-7-5-5-7-7-7-7-3-7-5-5-7-7-7-7-3-7-5-5-7-7-7-7-3-7-5-5-|

E-|-----------5---------------5---------------5---------------5-----|

e-|-------------------------------------------------------------

B-|-------------------------------------------------------------

G-|-------------------------------------------------------------

D-|-9-9-9-------------------------9-9-9-------------------------

A-|-7-7-7-9-9-7-7-5-5-5-5-7-7-7-7-7-7-7-9-9-7-7-5-5-5-5-7-7-7-7-

E-|-------7-7-5-5-3-3-3-3-5-5-5-5-------7-7-5-5-3-3-3-3-5-5-5-5-

e-|-------------------------------------------------------------|

B-|-------------------------------------------------------------|

G-|-------------------------------------------------------------|

D-|-9-9-9-------------------------9-9-9-------------------------|

A-|-7-7-7-9-9-7-7-5-5-5-5-7-7-7-7-7-7-7-9-9-7-7-5-5-5-5-7-7-7-7-|

E-|-------7-7-5-5-3-3-3-3-5-5-5-5-------7-7-5-5-3-3-3-3-5-5-5-5-|

e-|-----------------------------------------------------------------|

B-|-----------------------------------------------------------------|

G-|-----------------------------------------------------------------|

D-|-9-9-9-9-5---7-7-9-9-9-9-5---7-7-9-9-9-9-5---7-7-9-9-9-9-5---7-7-|

A-|-7-7-7-7-3-7-5-5-7-7-7-7-3-7-5-5-7-7-7-7-3-7-5-5-7-7-7-7-3-7-5-5-|

E-|-----------5---------------5---------------5---------------5-----|

-------------------------------------------------------------------------------

Get this song at:  amazon.com sheetmusicplus.com

Share your thoughts

0 Comments found