No Use for a Name

No Use for a Name - Gene And Paul guitar tab

-------------------------------------------------------------------------------

GENE AND PAUL... - No Use For a Name

-------------------------------------------------------------------------------

By: Hardcore Tor (allroyisgod85@aol.com)

e|---------------------------------------------------------------|

B|---------------------------------------------------------------|

G|---------------------------------------------7-7---------------|

D|-7--7--7-7-7--7-7-7-7-7-7-7--7--7--7---4-4-4-7-7---7-7-7-7-4-4-|

A|-7--7--7-7-7--7-7-7-7-7-7-7--7--7--7---4-4-4-5-5---7-7-7-7-4-4-|

E|-5--5--5-5-5--4-4-4-4-4-4-4--4--4--4---2-2-2-------5-5-4-4-2-2-|

gene & paul, I hate you most of all, and Ace, you’re the ace

e|---------------------------------------------------------------|

B|---------------------------------------------------------------|

G|-------7-------------------------------------------------------|

D|--4-4--7-------------------------------------------------------|

A|--4-4--5-------------------------------------------------------|

E|--2-2----------------------------------------------------------|

and Peter, YOU’RE THE CAT!!!

*Note!* You're gonna have to figure out the rythm and strummin'

on this bad boy. My timing is probably way off. If you have a

problem with the way I tabbed this out, you can go fuck yourself.

Love, Hardcore Tor

-------------------------------------------------------------------------------

Get this song at:  amazon.com sheetmusicplus.com

Share your thoughts

0 Comments found