No Use for a Name

No Use for a Name - Friends Of The Enemy guitar tab

FRIENDS OF THE ENEMY - NO USE FOR A NAME

TAB BY: Juan Pablo Castaño (proudly from Medellin, Colombia)

-please RATE ME-

You must find the rythm, that´s easy.

INTRO - MAIN

Guitar A

e-------0----0---(0)-|------0----0---(0)--------0----0-----------|

B--1----0----0----1--|-1----0----0----1----1----0----0-----------|

G--------------------|------------------------------------94--|

D--------Play--------|------------------------------------x---x--|

A--------only--------|------------------------------------72--|

E------on-Intro------|-------------------------------------------|

Guitar B

B--------------------|-------------------------------------------|

G--------------------|----------------5--------------------------|

D--------------------|-3---------7----5----3---------7----2------|

A--------------------|-3----2----7----3----3----2----7----2------|

E--------------------|-1----3----5---------1----3----5----0------|

VERSE 1

e-----/----------------play-with-palm-muting----------------------------------|

B----/----------(x8)----------------------------(x8)---------------------------|

G--^-(x6)---(x8)-5--(x8)----(x8)(x8)(x8)----(x8)-5--(x8)(x4)-------------------|

D--3-3--(x8)-7---5---3--(x8)-7---5---3--(x8)-7---5---5---3---101010-101010-77--|

A--3-3---2---7---3---3---2---7---5---3---2---7---3---5---3----8-8-8--7-7-7-55--|

E--1-1---3---5-------1---3---5---3---1---3---5-------3---1---------------------|

CHORUS

Guitar A

e--------------------------------------------------------------------|

B-(x8)--------------------------------(x8)-----------(x8)------------|

G--5---(x8)-(x8)-(x4)------------------5---(x8)-(x8)--7---(x4)-(x4)--|

D--5----5----7----3----3---3---3---3---5----5----7----7----3----5----|

A--3----5----7----3----3---3---3---3---3----5----7----5----3----5----|

E-------3----5----1----1---1---1---1--------3----5---------1----3----|

Guitar B

e--------------------------------------------------------------------|

B--------------------------------------^-----------------------------| Then play

G---------------------101010-9-9-9-7-7-5-----------------------------|

D----------------------x-x-x-x-x-x-x-x-x-----------------------------| INTRO-MAIN

A----------------------8-8-8-7-7-7-5-5-3-----------------------------|

E--------------------------------------------------------------------|

VERSE 2

e-----/----------------play-with-palm-muting-------------------------------|

B----/----------(x8)----------------------------(x8)------------------------| Then

G--^-(x6)---(x8)-5--(x8)----(x8)(x8)(x8)----(x8)-5--(x8)(x4)-1212121212--| play

D--3-3--(x8)-7---5---3--(x8)-7---5---3--(x8)-7---5---5---3---1212121212--| CHORUS

A--3-3---2---7---3---3---2---7---5---3---2---7---3---5---3---1010101010--|

E--1-1---3---5-------1---3---5---3---1---3---5-------3---1------------------|

BRIDGE

Guitar A

e-----Play-every-note-with-pm.--except-(^)--------^->

B-------------------------------------------------^->

G---------------------------5-5-5-5--5-5-5-5------0->

D--3-3-3-3--3-3-3-3--5-5-5--5-5-5-5--5-5-5-5--5-5-5->

A--3-3-3-3--3-3-3-3--5-5-5--3-3-3-3--3-3-3-3--5-5-5->

E--1-1-1-1--1-1-1-1--3-3-3--------------------3-3-3->

Guitar B

e--------------------------------------------------->

B--------------------------------------------------->

G--5-5-5-5--5-5-5-5--4-4-4-12121212-12121212-101010->

D--x-x-x-x--x-x-x-x--x-x-x--x-x-x-x--x-x-x-x--x-x-x->

A--3-3-3-3--3-3-3-3--2-2-2-10101010-10101010--8-8-8->

E--------------------------------------------------->

Guitar A

>-------------------------------------------------^--|

>-------------------------------------------------^--|

>-------------------------------------------------0--|

>-3-3-3-3--3-3-3-3--3-3-3---7-7-7-7--5-5-5-5--5-5-5--|

>-3-3-3-3--3-3-3-3--3-3-3---7-7-7-7--5-5-5-5--5-5-5--|

>-1-1-1-1--1-1-1-1--1-1-1---5-5-5-5--3-3-3-3--3-3-3--|

Guitar B

>----------------------------------------------------|

>----------------------------------------------------|

>14141414-14141414-12121010-9-9-9-9--4-4-4-4--4-4-4--|

>-x-x-x-x--x-x-x-x--x-x-x-x-x-x-x-x--x-x-x-x--x-x-x--|

>12121212-12121212-1010-8-8-7-7-7-7--2-2-2-2--2-2-2--|

>----------------------------------------------------|

BRIDGE

Guitar A

e----------without-pm----------------------------------->

B------------------------------------------------------->

G----------------------------5-5-5-5--5-5-5-5-5--------->

D-3-3-3-3--3-3-3-3-3--5-5-5--5-5-5-5--5-5-5-5-5-121212>

A-3-3-3-3--3-3-3-3-3--5-5-5--3-3-3-3--3-3-3-3-3-101010>

E-1-1-1-1--1-1-1-1-1--3-3-3----------------------------->

Guitar B

e------------------------------------------------------->

B------------------------------------------------------->

G-5-5-5-5--5-5-5-5-5--4-4-4-12121212-1212121212-101010-->

D-x-x-x-x--x-x-x-x-x--x-x-x--x-x-x-x--x-x-x-x-x--x-x-x-->

A-3-3-3-3--3-3-3-3-3--2-2-2-10101010-1010101010--8-8-8-->

E------------------------------------------------------->

Guitar A

>------------------------------------------------------|

>------------------------------------------------------|

>------------------------------------------------------|

>-3-3-3-3--3-3-3-3-3--3-3-3---7-7-7-7--5-5-5-5--5-5-5--|

>-3-3-3-3--3-3-3-3-3--3-3-3---7-7-7-7--5-5-5-5--5-5-5--|

>-1-1-1-1--1-1-1-1-1--1-1-1---5-5-5-5--3-3-3-3--3-3-3--|

Guitar B

>------------------------------------------------------|

>------------------------------------------------------|

>14141414-1414141414-12121010-9-9-9-9--4-4-4-4--4-4-4--|

>-x-x-x-x--x-x-x-x-x--x-x-x-x-x-x-x-x--x-x-x-x--x-x-x--|

>12121212-1212121212-1010-8-8-7-7-7-7--2-2-2-2--2-2-2--|

>------------------------------------------------------|

BRIDGE-(END)

e----/-PM.--------------------|

B---/-------------------------|

G--(X16)--(X8)----^------------|

D----3-----5-----12----|

A----3-----5-----10----|

E----1-----3-------------------|

OUTRO A (x3)

e-----------------------------------------|

B-(x8)------------------------------------|

G--5---(x8)-(x8)-(x4)---------------------|

D--5----5----7----3----3---3---3---3------| END

A--3----5----7----3----3---3---3---3------| e-----------------------------|

E-------3----5----1----1---1---1---1------| B-(x8)------------------------|

OUTRO B (x3) | G--5---(x8)-(x8)--^-----------|

e-----------------------------------------| D--5----5----7----3-----------|

B--------------------------------------^--| A--3----5----7----3--Let-ring-|

G---------------------101010-9-9-9-7-7-5--| E-------3----5----1-----------|

D----------------------x-x-x-x-x-x-x-x-x--|

A----------------------8-8-8-7-7-7-5-5-3--|

E-----------------------------------------|

Get this song at:  amazon.com sheetmusicplus.com

Share your thoughts

0 Comments found