No Use for a Name

No Use for a Name - Friends Of The Enemy bass tab

----------------------------------------------------------------------------

  No Use For A Name - Friends Of The Enemey

----------------------------------------------------------------------------

Intro

G|---5-4-5-----7-5-4----5-7-9--12--10--9---|

D|-33-3-3-3--55-5-5---77-7-7-7---10--10-10-|

A|-----------------------------------------|

E|-----------------------------------------|

Verse

1st Part

G|-------------------------|-------------------------|rpt|--------------|

D|-------------------------|-------------------------|1st|--------------|

A|-------------------3(x8)-|-------------------------|prt|--------------|

E|-1(x8)-3(x8)-5(x8)-------|-1(x8)-3(x8)-5(x8)-3(x8)-|   |-3(x16)-1(x8)-|

Chorus

G|----------------------------------------------------------------|

D|----------------------------------------------------------------|

A|-3(x16)----------------------3(x16)-----------------------------|

E|--------3(x16)-5(x16)-1(x16)--------3(x16)-5(x16)-3(x16)-1(x16)-|

Intro x2

Verse

Chorus

Bridge

      x2

G|------------------------------|---5-4*-5-4-5----7h9-12-10-9----|

D|------------------------------|33------------77-------------10-|

A|---------3(x8)----------------|--------------------------------|

E|1(x8)-33-------1(x8)-55-3(x8)-|--------------------------------|

gap for guitar then

Extended chorus

there are some fills I've not tabbed out 'cos I couldn't be arsed

and the bridge is a little off, but other than that enjoy

comments corrections e-mail me at propagandhi_rule@hotmail.com

carl chapman.

Get this song at:  amazon.com sheetmusicplus.com

Share your thoughts

0 Comments found