No Use for a Name

No Use for a Name - Friends For Enemies guitar tab

-------------------------------------------------------------------------------

FRIENDS FOR ENEMIES - No Use For A Name

-------------------------------------------------------------------------------

I havn't seen many tabs for this one, but it is one of my favorite NUFAN

songs so here it is.

Standard Tuning

Intro: its bass but its ok to know how to play it

---------------------------------------------

---------------------------------------------

--5-4-5----7-5-4----5-7-9---12-12-10-10-9-9-5 You play that like 4x

33-3-3---55-5-5---77-7-7-7-------------------

---------------------------------------------

---------------------------------------------

The Guitar actually goes like this during the intro:

----------------------------------------

----------------------------------------

5-5-4-5----5-5-4-5---5-5-4-5---5-5-4-5-0

----------------------------------------

----------------------------------------

----------------------------------------

Verse: All palm muted until the G5*at the end

----------------------------------------------

----------------------------------------------

----------------------------------------------

3--5--7--2--3--5--7--5-----3--5--7--2--5--3--5

3--5--7--2--3--5--7--5-----3--5--7--2--5--3--5

1--3--5--0--1--3--5--3-----1--3--5--0-*3--1--3

Chorus: open

----------------------------------------------

------------(666-555-33)----------------------

5-------------------------5--------7----------

5--5--7--3----------------5--5--7--7--3--5----

3--5--7--3----------------3--5--7--5--3--5----

---3--5--1-------------------3--5-----1--3----

Back to intro:

Bridge:

---------------------------------

---------------------------------

--------------------------------- i havn't figured out it all but mess around

3--5--10------------------------- with it. :( sorry

3--5--10-------------------------

1--3--8--------------------------

-------------------------------------------------------------------------------

Get this song at:  amazon.com sheetmusicplus.com

Share your thoughts

0 Comments found