No Use for a Name

No Use for a Name - For Fiona guitar tab

{{Guitar 1}}

E|---------------------------------------------------|

B|---------------------------------------------------|

G|--444444444444--888888888888-----------------------|

D|--444444444444--888888888888--6-----4-----2-----4--|

A|--222222222222--666666666666--6-----4-----2-----4--|

E|------------------------------4-----2-----0-----2--|

Verse

E|------------------------------------------|

B|------------------------------------------|

G|--------------------------------44444444--|

D|--22222222--44444444--66666666--44444444--|

A|--22222222--44444444--66666666--22222222--|

E|--00000000--22222222--44444444------------|

(I can only try my best)

E|------------------------------------------|

B|------------------------------------------|

G|------------------------------------------|

D|--22222222--44444444--22222222--44444444--|

A|--22222222--44444444--22222222--44444444--|

E|--00000000--22222222--00000000--22222222--|

Verse 2:

(If I could freeze)

E|------------------------------------------------|

B|--------------------------------------xxx--xxx--|

G|--xxx--xxx----xxx--xxx----xxx--xxx----444--444--|

D|--222--222----444--444----666--666----444--444--|

A|--222--222----444--444----666--666----222--222--|

E|--000--000----222--222----444--444--------------|

(Unfortunately truth is cold)

E|------------------------------------------------|

B|------------------------------------------------|

G|--xxx--xxx----xxx--xxx----xxx--xxx--------------|

D|--222--222----444--444----222--222--4444444444--|

A|--222--222----444--444----222--222--4444444444--|

E|--000--000----222--222----000--000--2222222222--|

Chorus:

E|--------------------------------------------------------|

B|--------------------------------------------------------|

G|--444444444444--888888888888----------------------------|

D|--444444444444--888888888888--6666--4444--222222222222--|

A|--222222222222--666666666666--6666--4444--222222222222--|

E|------------------------------4444--2222--000000000000--|

(Let it all crash down)

E|---------------------------------------------------|

B|---------------------------------------------------|

G|--444444444444--888888888888-----------------------|

D|--444444444444--888888888888--6-----4-----2-----4--|

A|--222222222222--666666666666--6-----4-----2-----4--|

E|------------------------------4-----2-----0-----2--|

(Verse 2)

(Chorus)

Bridge:

(I'm always here...)

E|--------------------------------------------------------|

B|--------------------------------------------------------|

G|--444444444444--888888888888----------------------------|

D|--444444444444--888888888888--6666--4444--222222222222--|

A|--222222222222--666666666666--6666--4444--222222222222--|

E|------------------------------4444--2222--000000000000--|

(Chorus)

Get this song at:  amazon.com sheetmusicplus.com

Share your thoughts

0 Comments found