No Use for a Name

No Use for a Name - Feilds Of Agony guitar tab

Song:    feilds of agony

Artist:  no use for a name

Author:  Roy Stevenson (are_you_done@yahoo.com)      

Tuning:  standard

e-|-------------------------------------------------------------

B-|-------------------------------------------------------------

G-|-------------------------------------------------------------

D-|-14-14-14-14-16-16-16-16-14-14-14-14-17-17-16-16-14-14-14-14-

A-|-12-12-12-12-14-14-14-14-12-12-12-12-15-15-14-14-12-12-12-12-

E-|-

e-|-------------------------------------|

B-|-------------------------------------|

G-|-------------------------------------|

D-|-16-16-16-16-14-14-14-14-17-16-14-12-|

A-|-14-14-14-14-12-12-12-12-15-14-12-10-|

E-|-------------------------------------|

e-|-----------------------------------------------------------------

B-|-----------------------------------------------------------------

G-|-----------------------------------------------------------------

D-|-----------------------------------------------------------------

A-|-7-7-7-7-7-7-7-7-5-5-5-5-5-5-5-5-4-4-4-4-4-4-4-4-3-3-3-3-2-2-2-2-

E-|-5-5-5-5-5-5-5-5-3-3-3-3-3-3-3-3-2-2-2-2-2-2-2-2-1-1-1-1-0-0-0-0-

e-|-----------------------------------------------------------------

B-|-----------------------------------------------------------------

G-|-----------------------------------------------------------------

D-|-----------------------------------------------------------------

A-|-7-7-7-7-7-7-7-7-5-5-5-5-5-5-5-5-4-4-4-4-4-4-4-4-3-3-3-3-2-2-2-2-

E-|-5-5-5-5-5-5-5-5-3-3-3-3-3-3-3-3-2-2-2-2-2-2-2-2-1-1-1-1-0-0-0-0-

e-|-----------------------------------------------------------------

B-|-----------------------------------------------------------------

G-|-----------------------------------------------------------------

D-|-----------------------------------------------------------------

A-|-7-7-7-7-7-7-7-7-5-5-5-5-5-5-5-5-4-4-4-4-4-4-4-4-3-3-3-3-2-2-2-2-

E-|-5-5-5-5-5-5-5-5-3-3-3-3-3-3-3-3-2-2-2-2-2-2-2-2-1-1-1-1-0-0-0-0-

e-|-----------------------------------------------------------------|

B-|-----------------------------------------------------------------|

G-|-----------------------------------------------------------------|

D-|-----------------------------------------------------------------|

A-|-7-7-7-7-7-7-7-7-5-5-5-5-5-5-5-5-4-4-4-4-4-4-4-4-3-3-3-3-2-2-2-2-|

E-|-5-5-5-5-5-5-5-5-3-3-3-3-3-3-3-3-2-2-2-2-2-2-2-2-1-1-1-1-0-0-0-0-|

e-|-----------------------------------------------------------------

B-|-----------------------------------------------------------------

G-|-----------------------------------------------------------------

D-|-5-5-5-5-5-5-5-5-5-5-5-5-5-5-5-5-7-7-7-7-7-7-7-7-7-7-7-7-7-7-7-7-

A-|-3-3-3-3-3-3-3-3-3-3-3-3-3-3-3-3-5-5-5-5-5-5-5-5-5-5-5-5-5-5-5-5-

E-|-----------------------------------------------------------------

e-|-----------------|

B-|-----------------|

G-|-----------------|

D-|-----------------|

A-|-7-7-7-7-3-3-2-2-|

E-|-5-5-5-5-1-1-0-0-|

e-|-----------------------------------------------------------------

B-|-----------------------------------------------------------------

G-|-----------------------------------------------------------------

D-|-----------------------------------------------------------------

A-|-7-7-7-7-7-7-7-7-5-5-5-5-5-5-5-5-4-4-4-4-4-4-4-4-3-3-3-3-2-2-2-2-

E-|-5-5-5-5-5-5-5-5-3-3-3-3-3-3-3-3-2-2-2-2-2-2-2-2-1-1-1-1-0-0-0-0-

e-|-----------------------------------------------------------------

B-|-----------------------------------------------------------------

G-|-----------------------------------------------------------------

D-|-----------------------------------------------------------------

A-|-7-7-7-7-7-7-7-7-5-5-5-5-5-5-5-5-4-4-4-4-4-4-4-4-3-3-3-3-2-2-2-2-

E-|-5-5-5-5-5-5-5-5-3-3-3-3-3-3-3-3-2-2-2-2-2-2-2-2-1-1-1-1-0-0-0-0-

e-|-----------------------------------------------------------------

B-|-----------------------------------------------------------------

G-|-----------------------------------------------------------------

D-|-----------------------------------------------------------------

A-|-7-7-7-7-7-7-7-7-5-5-5-5-5-5-5-5-4-4-4-4-4-4-4-4-3-3-3-3-2-2-2-2-

E-|-5-5-5-5-5-5-5-5-3-3-3-3-3-3-3-3-2-2-2-2-2-2-2-2-1-1-1-1-0-0-0-0-

e-|-----------------------------------------------------------------|

B-|-----------------------------------------------------------------|

G-|-----------------------------------------------------------------|

D-|-----------------------------------------------------------------|

A-|-7-7-7-7-7-7-7-7-5-5-5-5-5-5-5-5-4-4-4-4-4-4-4-4-3-3-3-3-2-2-2-2-|

E-|-5-5-5-5-5-5-5-5-3-3-3-3-3-3-3-3-2-2-2-2-2-2-2-2-1-1-1-1-0-0-0-0-|

e-|-----------------------------------------------------------------|

B-|-----------------------------------------------------------------|

G-|-----------------------------------------------------------------|

D-|-5-5-5-5-5-5-5-5-5-5-5-5-5-5-5-5-7-7-7-7-7-7-7-7-7-7-7-7-7-7-7-7-|

A-|-3-3-3-3-3-3-3-3-3-3-3-3-3-3-3-3-5-5-5-5-5-5-5-5-5-5-5-5-5-5-5-5-|

E-|-----------------------------------------------------------------|

e-|------------------------------------------------------------------

B-|------------------------------------------------------------------

G-|------------------------------------------------------------------

D-|----------------------10h12-10-10-14-12----------------14-12-10-9-

A-|-12-12-12-12-11-11-12-------------------12-12-11-12-11------------

E-|------------------------------------------------------------------

e-|------------------------------------------------------------------|

B-|------------------------------------------------------------------|

G-|------------------------------------------------------------------|

D-|----------------------10h12-10-10-14-12----------------14-12-10-9-|

A-|-12-12-12-12-11-11-12-------------------12-12-11-12-11------------|

E-|------------------------------------------------------------------|

e-|---------------------------------------------------------------------

B-|---------------------------------------------------------------------

G-|---------------------------------------------------------------------

D-|-5-5-5-5-5-5-5-5-5-5-5-5-5-5-5-5-7-7-7-7-7-7-7-7-7-7-7-7-7-7-7-7-5-4-

A-|-3-3-3-3-3-3-3-3-3-3-3-3-3-3-3-3-5-5-5-5-5-5-5-5-5-5-5-5-5-5-5-5-3-2-

E-|---------------------------------------------------------------------

e-|---------------------------------------------------------------------|

B-|---------------------------------------------------------------------|

G-|---------------------------------------------------------------------|

D-|-----5-5-5-5-5-5-5-5-5-5-5-5-5-5-5-5-7-7-7-7-7-7-7-7-7-7-7-7-7-7-7-7-|

A-|-7-5-3-3-3-3-3-3-3-3-3-3-3-3-3-3-3-3-5-5-5-5-5-5-5-5-5-5-5-5-5-5-5-5-|

E-|-5-3-----------------------------------------------------------------|

e-|-----------------------------------------------------------------

B-|-----------------------------------------------------------------

G-|-----------------------------------------------------------------

D-|-----------------------------------------------------------------

A-|-7-7-7-7-7-7-7-7-5-5-5-5-5-5-5-5-4-4-4-4-4-4-4-4-3-3-3-3-2-2-2-2-

E-|-5-5-5-5-5-5-5-5-3-3-3-3-3-3-3-3-2-2-2-2-2-2-2-2-1-1-1-1-0-0-0-0-

e-|-----------------------------------------------------------------

B-|-----------------------------------------------------------------

G-|-----------------------------------------------------------------

D-|-----------------------------------------------------------------

A-|-7-7-7-7-7-7-7-7-5-5-5-5-5-5-5-5-4---------------3-3-3-3-2-2-2-2-

E-|-5-5-5-5-5-5-5-5-3-3-3-3-3-3-3-3-2---------------1-1-1-1-0-0-0-0-

e-|-----------------------------------------------------------------

B-|-----------------------------------------------------------------

G-|-----------------------------------------------------------------

D-|-----------------------------------------------------------------

A-|-7-7-7-7-7-7-7-7-5-5-5-5-5-5-5-5-4-4-4-4-4-4-4-4-3-3-3-3-2-2-2-2-

E-|-5-5-5-5-5-5-5-5-3-3-3-3-3-3-3-3-2-2-2-2-2-2-2-2-1-1-1-1-0-0-0-0-

e-|-----------------------------------------------------------------|

B-|-----------------------------------------------------------------|

G-|-----------------------------------------------------------------|

D-|-----------------------------------------------------------------|

A-|-7-7-7-7-7-7-7-7-5-5-5-5-5-5-5-5-4-4-4-4-4-4-4-4-3-3-3-3-2-2-2-2-|

E-|-5-5-5-5-5-5-5-5-3-3-3-3-3-3-3-3-2-2-2-2-2-2-2-2-1-1-1-1-0-0-0-0-|

e-|-----------------------------------------------------------------

B-|-----------------------------------------------------------------

G-|-----------------------------------------------------------------

D-|-5-5-5-5-5-5-5-5-5-5-5-5-5-5-5-5-7-7-7-7-7-7-7-7-7-7-7-7-7-7-7-7-

A-|-3-3-3-3-3-3-3-3-3-3-3-3-3-3-3-3-5-5-5-5-5-5-5-5-5-5-5-5-5-5-5-5-

E-|-----------------------------------------------------------------

e-|---------------------------------------------------------------------|

B-|---------------------------------------------------------------------|

G-|---------------------------------------------------------------------|

D-|-5-5-5-5-5-5-5-5-5-5-5-5-5-5-5-5-7-7-7-7-7-7-7-7-7-7-7-7-7-7-7-7-5-4-|

A-|-3-3-3-3-3-3-3-3-3-3-3-3-3-3-3-3-5-5-5-5-5-5-5-5-5-5-5-5-5-5-5-5-3-2-|

E-|---------------------------------------------------------------------|

Get this song at:  amazon.com sheetmusicplus.com

Share your thoughts

0 Comments found