No Use for a Name

No Use for a Name - Feels Like Home guitar tab

Band: No Use For A Name

Title: Feels Like Home

Partitura Realizada Por CosmoHack

Tabbed Out By CosmoHack

H = Harmonic / Armónico

Empieza con armónicos naturales

Starts with natural harmonics

e|--------------

B|--------------

G|--------------

D|--------------

A|--------------

E|--4--4--4--4--

H H H H

e|----------------------------------------------------------------------

B|----------------------------------------------------------------------

G|----------------------------------------------------------------------

D|---------------------------------------5---5---5---5---5---5---5---5--

A|---6---6---6---6-----8---8---8---8---3---3---3---3---3---3---3---3----

E|-4---4---4---4-----6---6---6---6--------------------------------------

e|----------------------------------------------------------------------

B|----------------------------------------------------------------------

G|----------------------------------------------------------------------

D|---------------------------------------8---8---8---8---8---8---8---8--

A|---6---6---6---6-----8---8---8---8---6---6---6---6---6---6---6---6----

E|-4---4---4---4-----6---6---6---6--------------------------------------

e|----------------------------------------------------------------------

B|----------------------------------------------------------------------

G|----------------------------------------------------------------------

D|---------------------------------------5---5---5---5---5---5---5---5--

A|---6---6---6---6-----8---8---8---8---3---3---3---3---3---3---3---3----

E|-4---4---4---4-----6---6---6---6--------------------------------------

e|----------------------------------------------------------------------

B|----------------------------------------------------------------------

G|----------------------------------------------------------------------

D|----------------------------------------------------------------------

A|---6---6---6---6---6---6---6---6-----8---8---8---8---8---8---8---8----

E|-4---4---4---4---4---4---4---4-----6---6---6---6---6---6---6---6------

e|----------------------------------------------------------------------

B|----------------------------------------------------------------------

G|----------------------------------------------------------------------

D|---8---8---8---8---8---8---8---8--------------------------------------

A|-6---6---6---6---6---6---6---6-------8---8---8---8---8---8---8---8----

E|-----------------------------------6---6---6---6---6---6---6---6------

e|----------------------------------------------------------------------

B|----------------------------------------------------------------------

G|----------------------------------------------------------------------

D|---5---5---5---5------------------------------------------------------

A|-3---3---3---3-------8---8---8---8-----6---6---6---6---6---6---6---6--

E|-------------------6---6---6---6-----4---4---4---4---4---4---4---4----

e|----------------------------------------------------------------------

B|----------------------------------------------------------------------

G|----------------------------------------------------------------------

D|---8---8---8---8---8---8---8---8--------------------------------------

A|-6---6---6---6---6---6---6---6-------8---8---8---8---8---8---8---8----

E|-----------------------------------6---6---6---6---6---6---6---6------

e|----------------------------------------------------------------------

B|----------------------------------------------------------------------

G|-------------------------------------------------------------------3--

D|---5---5---5---5---------------------------------------------------1--

A|-3---3---3---3-------8---8---8---8-----6---6---6---6---6---6---3---x--

E|-------------------6---6---6---6-----4---4---4---4---4---3---1-----3--

Si teneis dudas mandar un e-mail a CosmoHack@hotmail.com

If dudes, mail to CosmoHack@hotmail.com

Get this song at:  amazon.com sheetmusicplus.com

Share your thoughts

0 Comments found