No Use for a Name

No Use for a Name - Feeding The Fire guitar tab

-*-*-*-*-*-*-*-*-*-*-*-*-*-*-*-*-*-*-*-*-*-*-*-*-*-*-*-*-*-*-*-*-*-*-*-

Song: feeding the fire

Artist: no use for a name

Author: Roy Stevenson (are_you_done@yahoo.com)

Tuning: standard

-*-*-*-*-*-*-*-*-*-*-*-*-*-*-*-*-*-*-*-*-*-*-*-*-*-*-*-*-*-*-*-*-*-*-*-

e-|---------------------------------------------------------------------

B-|---------------------------------------------------------------------

G-|--------------------------9-12-9-9-9-9-11-12-9-9-11-12-9-9-11-12-9-9-

D-|-------------10-9-10-9-10--------------------------------------------

A-|-2-2-x-2-2-x---------------------------------------------------------

E-|-0-0-x-0-0-x---------------------------------------------------------

e-|-------------------------------------------------------------------------

B-|-------------------------------------------------------------------------

G-|-9-11-12-9-11-12--12-9-9-9-9-11-12-9-9-11-12-9-9-11-12-9-9-11-12-9-11-12-

D-|-------------------------------------------------------------------------

A-|-------------------------------------------------------------------------

E-|-------------------------------------------------------------------------

e-|-----------------------------------------------------------------------

B-|-----------------------------------------------------------------------

G-|----------------9-11^-11-11-9-10-11-9-10-11-12^------------------9-11^-

D-|-11-9-11-9-11-9---------------------------------9-11-9-11-9-11-9-------

A-|-----------------------------------------------------------------------

E-|-----------------------------------------------------------------------

e-|--------------------------------------------------------------------

B-|--------------------------------------------------------------------

G-|-11-11-9-10-11-9-10-11-12^-----------------------------13-13--13-13-

D-|---------------------------11-11--11-11--11-11--11-11--11-11--11-11-

A-|--------------------------------------------------------------------

E-|--------------------------------------------------------------------

e-|------------------------|

B-|------------------------|

G-|-13-13--13-13--13~~~~~~-|

D-|-11-11--11-11--11~~~~~~-|

A-|------------------------|

E-|------------------------|

e-|-------------------------------------------------------------|

B-|-------------------------------------------------------------|

G-|-------------------------------------------------------------|

D-|-4-6-6---4-6-6---4-6-6---------4-6-6---4-6-6---4-6-6---------|

A-|-2-4-4-7-2-4-4-7-2-4-4-7-4-4-4-2-4-4-7-2-4-4-7-2-4-4-7-4-4-4-|

E-|-------5-------5-------5-2-2-2-------5-------5-------5-2-2-2-|

e-|-------------------------------------------------|-----------------------|

B-|-------------------------------------------------|-----------------------|

G-|-------------------------------------------------|-----------------------|

D-|-6-6-4-4---------------------------------4-4-4-4-|-6-6-4-6-6-4-6-6-4-6-6-|

A-|-4-4-2-2-7-7-6-6-4-4-4-4-6-6-6-6-7-7-7-7-2-2-2-2-|-4-4-2-4-4-2-4-4-2-4-4-|

E-|---------5-5-4-4-2-2-2-2-4-4-4-4-5-5-5-5---------|-----------------------|

e-|-----------------------------------------------------------------|

B-|-----------------------------------------------------------------|

G-|-----------------------------------------------------------------|

D-|-----------------4-4-4-4-4-4-4-4-6-6-6-6-6-6-6-6-6-6-6-6-6-6-6-6-|

A-|-7-7-7-7-7-7-7-7-2-2-2-2-2-2-2-2-4-4-4-4-4-4-4-4-4-4-4-4-4-4-4-4-|

E-|-5-5-5-5-5-5-5-5-------------------------------------------------|

e-|-------------------|-------------------------------------------------

B-|-------------------|-------------------------------------------------

G-|-------------------|-------------------------------------------------

D-|-------------------|-6-6-6-6-----------------9-9-8-8-6-6-6-6---------

A-|-4-4-6-6-7-7-9-7-9-|-4-4-4-4-6-6-6-6-7-7-7-7-7-7-6-6-4-4-4-4-6-6-6-6-

E-|-2-2-4-4-5-5-7-5-7-|---------4-4-4-4-5-5-5-5-----------------4-4-4-4-

e-|-----------------|----------11-12-15-14-|

B-|-----------------|----------------------|

G-|-----------------|-6-7-10-9-------------|

D-|---------9-9-8-8-|----------------------|

A-|-7-7-7-7-7-7-6-6-|----------------------|

E-|-5-5-5-5---------|----------------------|

e-|-------------------------------------|

B-|-------------------------------------|

G-|-------------------------------------|

D-|-6-7-10-9-6-7-10-9-6---6---6---------|

A-|-4-5--8-7-4-5--8-7-4-7-4-7-4-7-4-4-4-|

E-|---------------------5---5---5-2-2-2-|

e-|-------------------------------------------------------------|

B-|-------------------------------------------------------------|

G-|-------------------------------------------------------------|

D-|-4-6-6---4-6-6---4-6-6---------4-6-6---4-6-6---4-6-6---------|

A-|-2-4-4-7-2-4-4-7-2-4-4-7-4-4-4-2-4-4-7-2-4-4-7-2-4-4-7-4-4-4-|

E-|-------5-------5-------5-2-2-2-------5-------5-------5-2-2-2-|

e-|-------------------------------------------------|-----------------------|

B-|-------------------------------------------------|-----------------------|

G-|-------------------------------------------------|-----------------------|

D-|-6-6-4-4---------------------------------4-4-4-4-|-6-6-4-6-6-4-6-6-4-6-6-|

A-|-4-4-2-2-7-7-6-6-4-4-4-4-6-6-6-6-7-7-7-7-2-2-2-2-|-4-4-2-4-4-2-4-4-2-4-4-|

E-|---------5-5-4-4-2-2-2-2-4-4-4-4-5-5-5-5---------|-----------------------|

e-|-----------------------------------------------------------------|

B-|-----------------------------------------------------------------|

G-|-----------------------------------------------------------------|

D-|-----------------4-4-4-4-4-4-4-4-6-6-6-6-6-6-6-6-6-6-6-6-6-6-6-6-|

A-|-7-7-7-7-7-7-7-7-2-2-2-2-2-2-2-2-4-4-4-4-4-4-4-4-4-4-4-4-4-4-4-4-|

E-|-5-5-5-5-5-5-5-5-------------------------------------------------|

e-|-------------------|-------------------------------------------------

B-|-------------------|-------------------------------------------------

G-|-------------------|-------------------------------------------------

D-|-------------------|-6-6-6-6-----------------9-9-8-8-6-6-6-6---------

A-|-4-4-6-6-7-7-9-7-9-|-4-4-4-4-6-6-6-6-7-7-7-7-7-7-6-6-4-4-4-4-6-6-6-6-

E-|-2-2-4-4-5-5-7-5-7-|---------4-4-4-4-5-5-5-5-----------------4-4-4-4-

e-|-----------------|----------11-12-15-14-|

B-|-----------------|----------------------|

G-|-----------------|-6-7-10-9-------------|

D-|---------9-9-8-8-|----------------------|

A-|-7-7-7-7-7-7-6-6-|----------------------|

E-|-5-5-5-5---------|----------------------|

e-|---------------------|

B-|---------------------|

G-|---------------------|

D-|-6-7-10-9-6-7-10-9-6-|

A-|-4-5--8-7-4-5--8-7-4-|

E-|---------------------|

=====================================================================

Get this song at:  amazon.com sheetmusicplus.com

Share your thoughts

0 Comments found