No Use for a Name

No Use for a Name - Feeding The Fire bass tab

-------------------------------------------------------------

FEEDING THE FIRE / No Use For A Name

-------------------------------------------------------------

By: Carlos Pino

G-|----------------------------------------------------------------|

D-|----------------------------------------------------------------|

A-|-2-4-4----2-4-4--2-4-4------------2-4-4---2-4-4---2-4-4---------|

E-|-------5-------5---------5-2-2-2--------5-------5-------5-2-2-2-|

G-|-------------------------------------------------|-----------------------|

D-|-------------------------------------------------------------------------|

A-|-4-4-2-2---------------------------------2-2-2-2-|-4-4-2-4-4-2-4-4-2-4-4-|

E-|---------5-5-4-4-2-2-2-2-4-4-4-4-5-5-5-5---------|-----------------------|

G-|-----------------------------------------------------------------|

D-|-----------------------------------------------------------------|

A-|-----------------2-2-2-2-2-2-2-2-4-4-4-4-4-4-4-4-4-4-4-4-4-4-4-4-|

E-|-5-5-5-5-5-5-5-5-------------------------------------------------|

G-|--------------------|-------------------------------------------------

D-|--------------------|-------------------------------------------------

A-|--------------------|-4-4-4-4---------------------6-6-4-4-4-4---------

E-|-2-2-4-4-5-5-7-5-7--|---------4-4-4-4-5-5-5-5-----------------4-4-4-4-

G-|-----------------|

D-|-----------------|----------------------|

A-|---------7-7-6-6-|----------------------|

E-|-5-5-5-5---------|----------------------|

G-|-------------------------------------|

D-|----1--------------------------------|

A-|-4-5--8-7-4-5--8-7-4---4---4----------

E-|---------------------5---5---5-2-2-2-|

G-|-----------------------------------------------------------------|

D-|-----------------------------------------------------------------|

A-|-2-4-4---2-4-4----2-4-4------------2-4-4---2-4-4---2-4-4---------|

E-|-------5-------5----------5-2-2-2--------5-------5-------5-2-2-2-|

G-|-------------------------------------------------|-----------------------|

D-|--------------------------------------------------------------------------

A-|-4-4-2-2---------------------------------2-2-2-2-|-4-4-2-4-4-2-4-4-2-4-4-|

E-|---------5-5-4-4-2-2-2-2-4-4-4-4-5-5-5-5---------|-----------------------|

G-|-----------------------------------------------------------------|

D-|-----------------------------------------------------------------|

A-|-----------------2-2-2-2-2-2-2-2-4-4-4-4-4-4-4-4-4-4-4-4-4-4-4-4-|

E-|-5-5-5-5-5-5-5-5-------------------------------------------------|

G-|-------------------|-------------------------------------------------

D-|-------------------|-------------------------------------------------

A-|-------------------|-4-4-4-4----------------7-7-6-6-4-4-4-4-6-6-6-6-

E-|-2-2-4-4-5-5-7-5-7-|--------4-4-4-4-5-5-5-5--------------------------

G-|---------------------------------

D-|---------------------------------

A-|------------7-7-6-6--------------

E-|-5-5-5-5-------------------------

G-|---------------------|

D-|----------------------

A-|-4-5--8-7-4-5--8-7-4-|

E-|---------------------|

Get this song at:  amazon.com sheetmusicplus.com

Share your thoughts

0 Comments found