No Use for a Name

No Use for a Name - Fatal Flu guitar tab

-*-*-*-*-*-*-*-*-*-*-*-*-*-*-*-*-*-*-*-*-*-*-*-*-*-*-*-*-*-*-*-*-*-*-*-

Song: fatal flu

Artist: no use for a name

Author: Roy Stevenson (are_you_done@yahoo.com)

Tuning: standard

-*-*-*-*-*-*-*-*-*-*-*-*-*-*-*-*-*-*-*-*-*-*-*-*-*-*-*-*-*-*-*-*-*-*-*-

e:--------------------------------------------------------|

B:--------------------------------------------------------|

G:4-------------------------------------------------------|

D:4---x-x-x-x-x-x-x-x-x-x-x-x-6---------------------------|

A:3---2-2-2-2-2-2-2-2-2-2-2-2-6---x-x-x-x-x-x-x-x-x-x-x-x-|

E:----------------------------4---4-4-4-4-4-4-4-4-4-4-4-4-|

e:--------------------------------------------------------|

B:--------------------------------------------------------|

G:9-------------------------------------------------------|

D:9---x-x-x-x-x-x-x-x-x-x-x-x-4---------------------------|

A:7---7-7-7-7-7-7-7-7-7-7-7-7-4---x-x-x-x-x-x-x-x-x-x-x-3-|

E:----------------------------2---2-2-2-2-2-2-2-2-2-2-2-2-|

e:--------------------------------------------------------|

B:--------------------------------------------------------|

G:4--4-4--4-4-4-4--4-4--4-4-4-----------------------------|

D:4--4-4--4-4-4-4--4-4--4-4-4-6--6-6--6-6-6-6--6-6--6-6-6-|

A:2--2-2--2-2-2-2--2-2--2-2-2-6--6-6--6-6-6-6--6-6--6-6-6-|

E:----------------------------4--4-4--4-4-4-4--4-4--4-4-4-|

e:--------------------------------------------------------|

B:--------------------------------------------------------|

G:9--9-9--9-9-9-9--9-9--9-9-9-6--6-6--6-6-6-6--6-6--6-6-6-|

D:9--9-9--9-9-9-9--9-9--9-9-9-6--6-6--6-6-6-6--6-6--6-6-6-|

A:7--7-7--7-7-3-7--7-7--7-7-7-4--4-4--4-4-4-4--4-4--4-4-4-|

E:--------------------------------------------------------|

e:--------------------------------------------------------|

B:--------------------------------------------------------|

G:4--4-4--4-4-4-4--4-4--4-4-4-3--3-3--3-3-3-3--3-3--3-3-3-|

D:4--4-4--4-4-4-4--4-4--4-4-4-3--3-3--3-3-3-3--3-3--3-3-3-|

A:2--2-2--2-2-2-2--2-2--2-2-2-1--1-1--1-1-1-1--1-1--1-1-1-|

E:--------------------------------------------------------|

e:---------------------------------------------------------|

B:---------------------------------------------------------|

G:---------------------------------------------------------| 2 times

D:2--------------4--------------6--------------------------|

A:2--x-x-x-x-x-x-4--x-x-x-x-x-x-6--x-x-x-x-x-x-x-x-x-x-x-x-|

E:0--0-0-0-0-0-0-2--2-2-2-2-2-2-4--4-4-4-4-4-4-4-4-4-4-4-4-|

e:---------------------------------------------------------|

B:---------------------------------------------------------|

G:---------------------------------------------------------|

D:2--2-2-2-2-2-2-4--4-4-4-4-4-4-6--6-6-6-6-6-6-6-6-6-6-6-6-|

A:2--2-2-2-2-2-2-4--4-4-4-4-4-4-6--6-6-6-6-6-6-6-6-6-6-6-6-|

E:0--0-0-0-0-0-0-2--2-2-2-2-2-2-4--4-4-4-4-4-4-4-4-4-4-4-4-|

--SOLO

guit 1:

e:-------------------------------------------------------------------|

B:0--4--5--7--5--4--7/9--7--5--4--2--4/5--5-4-2-0--0-2-4-5-4-2-0--0--|

G:-------------------------------------------------------------4--4--|

D:-------------------------------------------------------------4--4--|

A:-------------------------------------------------------------2--2--|

E:-------------------------------------------------------------------|

guit 2:

e:-------------------------------------------------------|

B:-------------------------------------------------------|

G:-------------------------------------------------------|

D:9--9-9--9-9-9-8--8-8--8-8-8-6--6-6--6-6-6-4--4-4--4-4-4|

A:9--9-9--9-9-9-8--8-8--8-8-8-6--6-6--6-6-6-4--4-4--4-4-4|

E:7--7-7--7-7-7-6--6-6--6-6-6-4--4-4--4-4-4-2--2-2--2-2-2|

e:---------------------------------------------|

B:----------------------------0--0-------------|

G:----------------------------4--4-------------|

D:2--2-2--2-2-2-4--4-4--4-4-4-4--4-------------|

A:2--2-2--2-2-2-4--4-4--4-4-4-2--2-------------|

E:0--0-0--0-0-0-2--2-2--2-2-2------------------|

--END OF SOLO

e:-----------------------------------------|

B:-----------------------------------------|

G:----------------------------9--9-9--9-9-9|

D:6--6-6--6-6-6-6--6-6--6-6-6-9--9-9--9-9-9|

A:6--6-6--6-6-6-6--6-6--6-6-6-7--7-7--7-7-7|

E:4--4-4--4-4-4-4--4-4--4-4-4--------------|

e:-------------------------------------------|

B:-------------------------------------------|

G:9--9-9--9-9-9-4--4-4--4-4-4-4--4-4--4-4-4--|

D:9--9-9--9-9-9-4--4-4--4-4-4-4--4-4--4-4-4--|

A:7--7-7--7-7-7-2--2-2--2-2-2-2--2-2--2-2-2--|

E:-------------------------------------------|

e:---------------------------------------------------------------------|

B:---------------------------------------------------------------------|

G:9--8--6--8--6--4-----------------------------------------------------|

D:9--8--6--8--6--4--x-x-x-x-x-x-x-x-x-x-x-x-6--------------------------|

A:7--6--4--6--4--2--2-2-2-2-2-2-2-2-2-2-2-2-6--x-x-x-x-x-x-x-x-x-x-x-x-|

E:------------------------------------------4--4-4-4-4-4-4-4-4-4-4-4-4-|

e:---------------------------------------------------------|

B:---------------------------------------------------------|

G:-9--9-9--9-9-9-9--9-9--9-9-9-----------------------------|

D:-9--9-9--9-9-9-9--9-9--9-9-9-4--4-4--4-4-4-4--4-4--4-4-4-|

A:-7--7-7--7-7-7-7--7-7--7-7-7-4--4-4--4-4-4-4--4-4--4-4-4-|

E:-----------------------------2--2-2--2-2-2-2--2-2--2-2-2-|

LISTEN TO THE TAPE TO KNOW THE END OF THE SONG....play the intro, part 1 etc...

a bunch of time. This song is very easy but very cool thought

=====================================================================

Get this song at:  amazon.com sheetmusicplus.com

Share your thoughts

0 Comments found