No Use for a Name

No Use for a Name - Fairytale Of New York guitar tab

-------------------------------------------------------------------------------

NEW YORK FAIRY TALE - No Use For A Name

-------------------------------------------------------------------------------

Piano Intro

e|----9----11-12--------------------|

B|-12---10------------10-9----------|

G|---------------11-9------11--9-9--|

D|---------9------------------------|

A|----0---------------0-------------|

E|---------------0---------11----0--|

Enter Gtr 1&2 (0:43)(After Piano verse)

e|-----------|

B|-----------|

G|-----------|

D|-9--2--2---|

A|-9--2--2---|

E|-7--0--0---|

Verse 1 - Gtr 1&2 Play twice, second time end on Enter Riff

e|-----------------------------------------------------------------|

B|-----------------------------------------------------------------|

G|-----------------------------------------------------------------|

D|-2-2-2-2-2-2-2-2-7-7-7-7-7-7-7-7-2-2-2-2-2-2-2-2-9-9-9-9-9-9-9-9-|

A|-2-2-2-2-2-2-2-2-7-7-7-7-7-7-7-7-2-2-2-2-2-2-2-2-9-9-9-9-9-9-9-9-|

E|-0-0-0-0-0-0-0-0-5-5-5-5-5-5-5-5-0-0-0-0-0-0-0-0-7-7-7-7-7-7-7-7-|

P.M. ___________/ ___________/ ___________/ ___________/

1st Solo - Gtr 1 (1:07)

e|---------------------------------------------------------------------------|

B|-12-b14-12-9------9--12-b14-12-----------9---------------------------------|

G|---------------9---------------11--9-11--b13--11-9------------------8--9---|

D|---------------------------------------------------11----11--9--11------->>|

A|------------------------------------------------------12----------------->>|

E|------------------------------------------------------------------------->>|

Pick

Slide

1st Solo Backing - Gtr 2 (1:07) Play each note *3

e|---------------------------------------------------------------------------|

B|---------------------------------------------------------------------------|

G|-9-------------------9-------------------9-----------------------------9---|

D|-9---------9---------9---------9---------9---------7---------9---------9->>|

A|-7---------9---------7---------9---------7---------7---------9---------7->>|

E|-----------7-------------------7-------------------5---------7----------->>|

Verse 2A - Gtr 1&2 (1:18)(Cinder's Vocal) Play each note *6

e|----------------|----------------|----------------|-----------------|

B|----------------|----------------|----------------|-----------------|

G|-9--------------|-9-------9------|-9-------9------|-9---9-------9---|

D|-9---9---11--7--|-9---9---9---9--|-9---11--9---7--|-9---9---9---9---|

A|-7---9---11--7--|-7---9---7---9--|-7---11--7---7--|-7---7---9---7---|

E|-----7---9---5--|-----7-------7--|-----9-------5--|---------7-------|

Verse 2B - Gtr 1&2 (Back to Tony) Play each note *6

e|----------------|----------------|

B|----------------|----------------|

G|-9-------9------|-9-----------9--|*2

D|-9---9---9---7--|-9---7---9---9--|

A|-7---9---7---7--|-7---7---9---7--|

E|-----7-------5--|-----5---7------|

Chorus - Gtr 1&2 (2:00)

e|-------*2--------|-----------------|-----------------|---------------------|

B|-----------------|-----------------|-----------------|---------------------|

G|-----------------|-9---9-9-9---9-9-|-6---6---6-6-6-6-|-9---9-9-------------|

D|-7---7---7-7-7-7-|-9---9-9-9---9-9-|-6---6---6-6-6-6-|-9---9-9-7---7-7-9---|

A|-7---7---7-7-7-7-|-7---7-7-6---6-6-|-4---4---4-4-4-4-|-7---7-7-7---7-7-9---|

E|-5---5---5-5-5-5-|-----------------|-----------------|---------5---5-5-7---|

2nd Solo - Gtr 1 (2:08) *=pick note while bending

e|-----------------------------------------------------------------------|

B|---------9---------------9-------------12-b14-12--9-------9--10-12-----|

G|-9--11--b13*-11--9--11--b13*-11--9------------------9--11----------11--|

D|-----------------------------------11----------------------------------|

A|-----------------------------------------------------------------------|

E|-----------------------------------------------------------------------|

e|-----------------------------------------------------------------|

B|-12-b14-12--9--------9-------------------9-12-9--------9---------|

G|--------------9--11-b13*--11--9--------9---------9-11-b13*-11-9--|

D|--------------------------------11---9---------------------------|

A|-----------------------------------------------------------------|

E|-----------------------------------------------------------------|

2nd Solo Backing - Gtr 2 Plays Verse 2A

(2:30)

Gtr 1&2 play Verse 2B*2

Gtr 1&2 play Chorus

3rd Solo - Gtr 1 (2:59)

e|-----------------------------------------------------------------------|

B|-----------------------------------------------------------------------|

G|-------------9-8-8-------------8-9-------------------------------------|

D|-----------9--------11-11---11-----9-----------------------------------|

A|-------------------------------------11-11---12-11-9-------------------|

E|------------------------------------------12----------12-12--11-11-----|

3rd Solo Backing - Gtr 2 (2:59) Play each note *1

e|-----------------------------------------------------------------------|

B|-----------------------------------------------------------------------|

G|-----------------------------------------------------------------------|

D|-2---------------7----------------2----------------9-------------------|

A|-2---------------7----------------2----------------9-------------------|

E|-0---------------5----------------0----------------7-------------------|

Bridge - Gtr 1&2 (3:10) (I could've been someone...) All notes palm-muted

e|-----------------|-----------------|-----------------|-----------------|

B|-----------------|-----------------|-----------------|-----------------|

G|-----------------|-----------------|-----------------|-----------------|

D|-2--2-2---2--2-2-|-7--7-7---7--7-7-|-2--2-2---2--2-2-|-9--9-9---9--9-9-|

A|-2--2-2---2--2-2-|-7--7-7---7--7-7-|-2--2-2---2--2-2-|-9--9-9---9--9-9-|

E|-0--0-0---0--0-0-|-5--5-5---5--5-5-|-0--0-0---0--0-0-|-7--7-7---7--7-7-|

Gtr 2 plays Verse 1 (3:23)

Gtr 1 (3:23)

e|-----------------------------------5-4-2--0-0-/7--|

B|--(5-5-5-5-5-5-5-5)*5--5-5-5-5-5-5-5-5-4--5-5-----|

G|--------------------------------------------------|

D|--------------------------------------------------|

A|--------------------------------------------------|

E|--------------------------------------------------|

P.M.______________/

Chorus - Gtr 1

e|-------*2--------|-----------------|-----------------|---------------------|

B|-----------------|-----------------|-----------------|---------------------|

G|-----------------|-9---9-9-9---9-9-|-6---6---6-6-6-6-|-9---9-9-------------|

D|-7---7---7-7-7-7-|-9---9-9-9---9-9-|-6---6---6-6-6-6-|-9---9-9-7---7-7-9---|

A|-7---7---7-7-7-7-|-7---7-7-6---6-6-|-4---4---4-4-4-4-|-7---7-7-7---7-7-9---|

E|-5---5---5-5-5-5-|-----------------|-----------------|---------5---5-5-7---|

Chorus - Gtr 2

e|-------*2--------|-----------------|-----------------|---------------------|

B|-----------------|-----------------|-----------------|---------------------|

G|-9-9-9-9-9-9-9-9-|-9-9-9-9-9-9-9-9-|-9-9-9-9-9-9-9-9-|-9---9-9-------------|

D|-X-X-X-X-X-X-X-X-|-X-X-X-X-X-X-X-X-|-X-X-X-X-X-X-X-X-|-9---9-9-7---7-7-9---|

A|-7-7-7-7-7-7-7-7-|-7-7-7-7-7-7-7-7-|-7-7-7-7-7-7-7-7-|-7---7-7-7---7-7-9---|

E|-----------------|-----------------|-----------------|---------5---5-5-7---|

4th Solo - Gtr 1&2 (3:43)

e|---------------------------------|

B|-10--10-12-14-12-10-9------------|

G|------------------------9--8--6--|

D|-7---7--9--11-9--7--6------------|

A|------------------------7--6--4--|

E|---------------------------------|

Outro - Gtr 1&2 Acoustic Outro (with flute) - Play twice

e|-----------------|--7---7-7-7-7---7-7-7-7---7-7-7-5---5-5-5--|

B|----------P------|--9---9-9-9-7---7-7-7-9---9-9-9-5---5-5-5--|

G|-9--------A--9--|--9---9-9-9-8---8-8-8-9---9-9-9-6---6-6-6--|

D|-9--7--9--U--9--|--9---9-9-9-9---9-9-9-9---9-9-9-7---7-7-7--|

A|-7--7--9--S--7--|--7---7-7-7-9---9-9-9-7---7-7-7-7---7-7-7--|

E|----5--7--E------|------------7---7-7-7-----------5---5-5-5--|

Flute Part (Repeat & Fade out)

e|------------------------------|----9--------------------------|

B|-9-9-----------9--------------|-12---12-9------9---10-12------|

G|-----11---9-11---11-9h11p9----|-----------9-11-----------11---|

D|---------------------------11-|-------------------------------|

A|------------------------------|-------------------------------|

E|------------------------------|-------------------------------|

Tabbed by Kevin Gori. Any complaints or corrections can be worded tactfully

and sent to . I might even read them.

-------------------------------------------------------------------------------

Get this song at:  amazon.com sheetmusicplus.com

Share your thoughts

0 Comments found