No Use for a Name

No Use for a Name - Fairy Tale Of New York bass tab

Verse 1(enter at 0:22)

G:------------------|

D:------------------|

A:------------------|x1

E:-7~-70~~~---------|

G:------------------------------------------------------------------|

D:------------------------------------------------------------------|

A:-7777777777777777----------------7777777777777777-----------------|x1

E:-----------------5555555555555555----------------7777777777777777-|

G:------------------------------------------------------------------|

D:------------------------------------------------------------------|

A:-7777777777777777----------------7777777777777777-----------------|x1

E:-----------------5555555555555555----------------7777000000000000-|

Play during solo

G:------------------------------------------------------------------|

D:------------------------------------------------------------------|

A:-77777777--------77777777--------77777777----------------77777777-|x1

E:---------77777777--------77777777--------5555555577777777---------|

Verse 2

G:------------------------------------------------------------------|

D:------------------------------------------------------------------|

A:-77777777--------44444444--------77777777--------77777777---------|x1

E:---------77777777--------55555555--------77777777--------77777777-|

G:------------------------------------------------------------------|

D:--------------46-----976------------------------------------------|

A:-7777777744447--47777---7--------7777777777777777--------77777777-|x1

E:-------------------------55555555----------------77777777---------|

G:------------------------------------------------------------------|

D:------------------------------------------------------------------|

A:-77777777--------77777777--------77777777----------------77777777-|x1

E:---------77777777--------55555555--------5555555577777777---------|

G:------------------------------------------------------------------|

D:------------------------------------------------------------------|

A:-77777777--------77777777--------77777777----------------77554422-|x1

E:---------77777777--------55555555--------5555555577777777---------|

Chorus

G:--------------------------------------------------|

D:--------------------------------------------------|

A:-----------------7777775544444444-----------------|x1

E:-5555555555555555----------------000055557--------|

Play during solo

G:------------------------------------------------------------------|

D:------------------------------------------------------------------|

A:-77777777--------44444444--------77777777--------77777777--667799-|x1

E:---------77777777--------55555555--------77777777--------77-------|

G:------------------------------------------------------------------|

D:------------------------------------------------------------------|

A:-777777774444444477777777--------7777777777777777--------77777777-|x1

E:-------------------------55555555----------------77777777---------|

Verse 3

G:------------------------------------------------------------------|

D:------------------------------------------------------------------|

A:-77777777--------77777777--44557777777777----------------77777777-|x1

E:---------77777777--------55--------------5555555577777777---------|

G:------------------------------------------------------------------|

D:------------------------------------------------------------------|

A:-77777777--------77777777--------77777777----------------77554422-|x1

E:---------77777777--------55555555--------5555555577777777---------|

Repeat:

Chorus

Bridge

G:------------------------------------------------------------------|

D:------------------------------------------------------------------|

A:-7~~~~~~~------------------------7~~~~~~~-------------------------|x1

E:-----------------5~~~~~~~------------------------7~~~~~~~---------|

G:------------------------------------------------------------------|

D:------------------------------------------------------------------|

A:-7--7-7--7--7-7------------------7--7-7--7--7-7-------------------|x1

E:-----------------5--5-5--5--5-5------------------7--7-7--7--7-7---|

G:------------------------------------------------------------------|

D:------------------------------------------------------------------|

A:-7777777777777777----------------7777777777777777-----------------|x1

E:-----------------5555555555555555----------------7777000000000000-|

Repeat:

Chorus

Outro

G:--------------------|

D:--------------------|

A:-777777775/7775/777-|x1

E:--------------------|

G:---------------------------------------------------|

D:---------------------------------------------------|

A:-----------------7777775544444444----------------7-|x1

E:-5555555555555555----------------000055557---------|

Get this song at:  amazon.com sheetmusicplus.com

Share your thoughts

0 Comments found