No Use for a Name

No Use for a Name - Exit bass tab

# intro # 0:41 *=play 6X %=pause #=play 3X >

G--------------------------------------------------------------->

D----*-----*-----------*-----*-----*-----------*-----*-----#---->

A---2-----2------*----3-----2-----2------*----3-----2-----2-/14>

E---------------3-----------------------3----------------------->

>intro

>--|--------|2X|-----------|--------------------------%%%%%%%---|

>--|-------*-----*-----*---|-------*-----*-----*------%%%%%%%---|

>--|-*----3-----2-----2----|-*----0-----2-----2---/10%%%%%%%14|

>--|3----------------------|3-------------------------%%%%%%%---|

:

# main # *=play 6X #=play 3X

G---------------------------------------------------------------------------|

D----#---#-------#-------------------#---#-------#--------------------------|

A---2---0----#--0----*-------*------2---0----#--0----*----------------------|

E-----------3-------0-------2---------------3-------0-------22-022-022-022-0|

:

# verse # *=play 6X

G-------------------------------------------------------------------|

D----*-------*---------------*-------*-------*----------------------|

A---2----*--5----*---*---*--5----*--2----*--5----*---*---*---*------|

E-------3-------5---0---3-------2-------3-------5---0---3---5---3---|

:

# chorus # *=play 6X #=play 3X

G-------------------------------------------------------------------|

D----*---*---*---*------------------#---------------#----*----------|

A---5---5---2---2----*---*---*---*--5-#--*---*---*--2-#-5----*---*--|

E-------------------3---3---5---5-----5-3---2---2-----3-----0---2---|

:

# main2 # #=play 3X %=pause

G-------------------%-%-%-%---------|

D----#---#-------#--%-%-%-%---------|

A---2---0----#--0---%-%-%-%---------|

E-----------3-------%0%0%0%02-------|

:

Then play verse.

:

# chorus2 # *=play 6X #=play 3X

G--|------------|2X|---------------|---------------------------------|

D--|-*---*---*---*-----------------|#---------------#----*-----------|

A--|5---5---2---2----*---*---*---*-|5-#--*---*---*--2-#-5----*--#/14|

E--|----------------3---3---5---5--|--5-3---2---2-----3-----0---2----|

:

# main3 # *=play 6X #=play 3X %=pause

G-------------------%-%-%-%-%-%-%-%-------------------------|

D----#---#-------#--%-%-%-%-%-%-%-%----------*--------------|

A---2---0----#--0---%-%-%-%-%0%0%0%0-*------0-------2-------|

E-----------3-------%3%3%3%3%-%-%-%-3-----------------------|

Taken from The BassMasta -- http://www.tabs-database.com

Get this song at:  amazon.com sheetmusicplus.com

Share your thoughts

0 Comments found