No Use for a Name

No Use for a Name - Evita bass tab

Band : No Use For A Name

Song : Evita

Tabbed By : Paul Comrie-Thomson (pcomriet@hotmail.com)

00:23

G------------------------------------------------------------------------

D------------------------------------------------------------------------

A------------------------------------55555555----------55555555-33333333-

E-00000000000000000-5555555555555555----------55555555-------------------

G------------------------------------------------------------------------

D------------------------------------------------------------------------

A-22222222---------------------------------------------------------------

E----------5555-2222-3---------------------------------------------------

BREAK

00:50

G------------------------------------------------------------------------

D------------------------------------------------------------------------

A-3333333333333333-5555555555555555--------------------------------------

E-----------------------------------3333333333333333-22222222-00000000000

G------------------------------------------------------------------------

D------------------------------------------------------------------------

A------------------------55555555----------55555555-33333333-22222222----

E-00000-5555555555555555----------55555555-------------------------------

G------------------------------------------------------------------------

D------------------------------------------------------------------------

A------------------------------------------------------------------------

E-5555-2222-3------------------------------------------------------------

01:29

G------------------------------------------------------------------------

D------------------------------------------------------------------------

A----------------------------------55555555-33333333----------22---------

E-33333333333333333333333333333333-------------------33333333------------

01:49

G------------------------------------------------------------------------

D------------------------------------------------------------------------

A------------------3333333333333333-5555555555555555---------------------

E-3333333333333333-----------------------------------3333333333333333----

G------------------------------------------------------------------------

D------------------------------------------------------------------------

A----------------------------------------------5555555555555555----------

E-22222222-00000000000000000-55555555-33333333------------------555555555

G------------------------------------------------------------------------

D------------------------------------------------------------------------

A---------5-5-5--55---3-3-3--33---2-2-2--22------------------------------

E-5555555-----------------------------------5555-2222-3--3333333333333333

G------------------------------------------------------------------------

D------------------------------------------------------------------------

A------------------55555555-33333333----------3333333333333333-22222222--

E-3333333333333333-------------------33333333----------------------------

02:56

G------------------------------------------------------------------------

D------------------------------------------------------------------------

A-0000000000000000-5555555555555555------------------2222222222222222-333

E-----------------------------------3333333333333333---------------------

G------------------------------------------------------------------------

D----------------------------------------2-2-2-2-------------------------

A-333333333333-----------------------5-5---------------------------------

E--------------5555555555555555--3-3-------------------------------------

03:16

G------------------------------------------------------------------------

D------------------------------------------------------------------------

A----------------------------------55555555-33333333----------33333333---

E-33333333333333333333333333333333-------------------33333333----------33

G------------------------------------------------------------------------

D------------------------------------------------------------------------

A--------33333333----------33333333----------33--------------------------

E-333333----------33333333----------33333333-----------------------------

This is correct. Having said that, on the off chance that you do find a mistake, e-mail

me and I will correct it, (but it is right).

If you like this song, check out the Me First And The Gimme Gimme's version, called "Don't

Cry For Me Argentina".

Alright. Catch ya later.

Get this song at:  amazon.com sheetmusicplus.com

Share your thoughts

0 Comments found