No Use for a Name

No Use for a Name - Enjoy The Silence guitar tab

No Use for a Name- Enjoy the Silence

Tabbed by: Crystal (adiochic@hotmail.com)

Standard Tuning- EADGBe

Intro

Gtr. 1

E||--------------------------------|

B||--------------------------------|

G||--------------------------------|

D||--5-5-5-5-5-5-5-5-8-8-8-8-8-8-8-|

A||--5-5-5-5-5-5-5-5-8-8-8-8-8-8-8-| x4

E||--3-3-3-3-3-3-3-3-6-6-6-6-6-6-6-|

Gtr. 2

E||----------------------| |--------------------|

B||----------------------| |--------------------|

G||--12--14----12--10----| |--8--7----12--10----|

D||--x---x-----x---x-----|x2 |--x--x----x---x-----| x2

A||--10--12----10--8-----| |--6--5----10--8-----|

E||----------------------| |--------------------|

Verse 1 & 2

E||------------------------------------------------------------|

B||------------------------------------------------------------|

G||----------------------------------8-x-x-x-x-x-x-8-x-x-x-x-x-|

D||--5-x-x-x-x-x-x-x-8-x-x-x-x-x-x-x-8-x-x-x-x-x-x-8-x-x-x-x-x-|

A||--5-x-x-x-x-x-x-x-8-x-x-x-x-x-x-x-6-x-x-x-x-x-x-6-x-x-x-x-x-| x2

E||--3-x-x-x-x-x-x-x-6-x-x-x-x-x-x-x-6-x-x-x-x-x-x-6-x-x-x-x-x-|then pick slide

Chorus

E||-----------------------|---------------------------------|

B||-----------------------|---------------------------------|

G||--------8--------------|--------8------------------------|

D||--10----8----5----8----|--10----8----5----4--------------|

A||--10----6----5----8----|--10----6----5----4--------------|

E||--8-----6----3----6----|--8-----6----3----2---pick slide-|

Then,

Gtr. 1

E||--------------------------------|

B||--------------------------------|

G||--------------------------------|

D||--5-5-5-5-5-5-5-5-8-8-8-8-8-8-8-|

A||--5-5-5-5-5-5-5-5-8-8-8-8-8-8-8-| x2

E||--3-3-3-3-3-3-3-3-6-6-6-6-6-6-6-|

Gtr. 2

E||----------------------|

B||----------------------|

G||--12--14----12--10----|

D||--x---x-----x---x-----| x2

A||--10--12----10--8-----|

E||----------------------|

Repeat Verse

Repeat Chorus

(1:21)

E||----------------------|----------------------------|

B||----------------------|----------------------------|

G||--12--14----15--10----|--10--7----10--7------------|

D||--x---x-----x---x-----|--x---x----x---x------------|

A||--10--12----13--8-----|--8---5----8---5------------|x2

E||----------------------|------------------pick slide|

(with effects)

E||----------------------| |--------------------|

B||----------------------| |--------------------|

G||--12--14----15--10----| |--8--7----12--10----|

D||--x---x-----x---x-----|x2 |--x--x----x---x-----| x2

A||--10--12----13--8-----| |--6--5----10--8-----|

E||----------------------| |--------------------| pick slide on E

Repeat Chorus

E||-----------------------|----------------------|

B||-----------------------|----------------------|

G||--------8--------------|--------8-------------|

D||--10----8----5----8----|--10----8----5----4---|

A||--10----6----5----8----|--10----6----5----4---|

E||--8-----6----3----6----|--8-----6----3----2---|

Outro

E||----------------------|--------------------||

B||----------------------|--------------------||

G||--12--14----15--10----|--10--7----10--7----||

D||--x---x-----x---x-----|--x---x----x---x----||

A||--10--12----13--8-----|--8---5----8---5----|| x2

E||----------------------|--------------------||

I listen to this song so many times I had to tab it. Enjoy :P

Get this song at:  amazon.com sheetmusicplus.com

Share your thoughts

0 Comments found