No Use for a Name

No Use for a Name - Dumbreminders guitar tab

Band: No use 4 a name

track: Dumb Reminders

Tabber: Soda_Punk! aka Skatergurl***

INTRO

e|--------------------------------------|-----------------3--------3-----------|

B|--------------------------------------|-------------------3--------3---------|

G|--11-12-11-14-12-11-----7-9-7-11-9-7--|--6-7-6-7------4--------4-----4-------|

D|--------------------------------------|-----------5-5------------------------|

A|---9-10--9-12-10--9-----5-7-5--9-7-5--|--4-5-4-5-----------------------------|

E|--------------------------------------|--------------------------------------|

INTRO 2

e|--------------|

B|--------------|

G|--7--4--------|

D|--7--4--7--5--|

A|--5--2--7--5--|

E|--------5--3--|

VERSE 1

e|--------------|

B|--------------|

G|--7--4--------|

D|--7--4--7--5--|

A|--5--2--7--5--|

E|--------5--3--|

PM . . . .

VERSE 2

e|---------------|

B|---------------|

G|--7--9-11-7-6--|

D|--7------------|

A|--5--7--9-5-4--|

E|---------------|

VERSE 2

e|--------------|

B|--------------|

G|--7--4--------|

D|--7--4--5--7--|

A|--5--2--5--7--|

E|--------3--5--|

PRE-CHORUS

e|-------------------------|

B|-------------10-9-7------|

G|--7-6-11--------------6--|

D|---------9-7-------------|

A|----------------------4--|

E|-------------------------|

PM . . . . . . . .

CHORUS

e|-------------------------------------|

B|-------------------------------------|

G|--7--------7-9-----------7-16--------|

D|--7--5--7-------9--7--7--7-----5--7--|

A|--5--5--7--5-7--9--7--7--5-14--5--7--|

E|-----3--5-------7--5--5--------3--5--|

CHORUS

e|-----------------------------------|

B|-----------------------------------|

G|--7--------7-----4--------7--------|

D|--7--5--7--7--7--4--7--7--7--5--7--|

A|--5--5--7--5--4--2--7--7--5--5--7--|

E|-----3--5-----------5--5-----3--5--|

OUTRO

e|---------------------|

B|---------------------|

G|--19-18-19-18-16-14--|

D|---------------------|

A|--17-16-17-16-14-12--|

E|---------------------|

OUTRO

e|---------------|

B|---------------|

G|------------7--|

D|--5-7--5-7--7--|

A|--5-7--5-7--5--|

E|--3-5--3-5-----|

Get this song at:  amazon.com sheetmusicplus.com

Share your thoughts

0 Comments found