No Use for a Name

No Use for a Name - Dumb Reminders bass tab

Artist No Use For A Name

Song Dumb Reminders

Album Hard Rock Bottom

standard tuning

~=let ring

/=slide up

slide down

tabbed by TheBigLebowski (philmccracken7@yahoo.com)

Intro 2x

1|---------------------------------------------|

2|---------------------------------------------|

3|--5555-5555-2222-2222-------------------777--|

4|----------------------5555-5555-3333-33------|

Verse

1|-----------------------------------------------------------

2|-----------------------------------------------------------

3|-5-5555-5555-2-2222-2222---------------------777-5555-5555-

4|-------------------------5-555-5555-3-333-33---------------

Cont.

1|-------------------------------------|

2|-------------------------------------|

3|--2222-2222-------------------5/75--|

4|------------3333-3333-5555-55--------|

Pre-Chorus

1|-------------------------------------------------------------------------||

2|-------------------------------------------------------------------------||

3|--2222-2222-0000000-------------------5555-5555-555555-------------------|

4|--------------------3333-3333-33333333-----------------3333-3333-3333333-|

Chorus

1|-----------------------------------------------------------

2|-----------------------------------------------------------

3|--2222-2222---------------------5555-5-----2222---------55-

4|------------3333-3333-5555-5555--------555------3333-55----

Cont.

1|----------------------|-----------------------------------|

2|----------------------|-----------------------------------|

3|------------------5~--|--2222-2222-------------------777--|

4|--3333-3333-5555------|------------5555-5555-3333-33------|

Verse 1x

Pre-Chorus 1x

Chorus 1x

Ending

1|------------------------------------------------------------

2|------------5555-5555-7777-7777----------------5555---------

3|--2222-2222---------------------55555-----2222---------55---

4|--------------------------------------555-----------55----3-

Cont. 3x

1|------------------|----------------|----------------------|

2|------------------|----------------|----------------------|

3|------------------|----------------|------------------5~--|

4|--3333-3333-5555--|-333333-555555--|-3-3-3-3--5-5-5-5-----|

Please rate this tab, Thanks.

Taken from The BassMasta -- http://www.tabs-database.com

Get this song at:  amazon.com sheetmusicplus.com

Share your thoughts

0 Comments found