No Use for a Name

No Use for a Name - Dont Miss The Train Live guitar tab

this version is slightly different to studio version

b=bend *=palm mute

intro

e----------------------------------------------|

b----------------------------------------------|

g---------7->-9--10-9-5---------7->-9--10-9-12-|

d--7-7-7--7->-9--10-9-5--7-7-7--7->-9--10-9-12-|

a--7-7-7--5->-7--8--7-3--7-7-7--5->-7--8--7-10-|

e--5-5-5-----------------5-5-5-----------------|

* * * *

verse

e-----------------------------------------------------------------------------|

b-----------------------------------------------------------------------------|

g-----------------------------------------5-5-5-5-5-5-------------5-5-5-7-7-7-|

d--7-7-7-7-7-7--5-5-5-5-5-5--7-7-7-7-7-7--5-5-5-5-5-5--3-3-3-3-3--5-5-5-7-7-7-|

a--7-7-7-7-7-7--5-5-5-5-5-5--7-7-7-7-7-7--3-3-3-3-3-3--3-3-3-3-3--3-3-3-5-5-5-|

e--5-5-5-5-5-5--3-3-3-3-3-3--5-5-5-5-5-5---------------1-1-1-1-1--------------|

* * * * * * * * * * * * * * * *

chorus

e----------------------------------------------|

b----------------------------------------------|

g------------------------5-5-5-5-5--7-7-7-7-7--| play twice....

d--7-7-7-7-7--6-6-6-6-6--5-5-5-5-5--7-7-7-7-7--|

a--7-7-7-7-7--6-6-6-6-6--3-3-3-3-3--5-5-5-5-5--|

e--5-5-5-5-5--4-4-4-4-4------------------------|

...then (could be the only chance we have..)

e----------------------|

b----------------------|

g-------------5-5-5--7-|

d--7-7-7-7-7--5-5-5--7-|

a--7-7-7-7-7--3-3-3--5-|

e--5-5-5-5-5-----------|

solo

e-----------------------------------------------------------------------------|

b-------------------------------------------------------------------------16--|b

g------5-7-9----4-5-7------5-7-9--10-9-7------5-7-9----4-5-7--10b-12b-14b-----|

d--7-7--------5--------7-7----------------7-7--------5------------------------|

a-----------------------------------------------------------------------------|

e-----------------------------------------------------------------------------|

last couple of notes may not be right but i honestly don't care

Get this song at:  amazon.com sheetmusicplus.com

Share your thoughts

0 Comments found