No Use for a Name

No Use for a Name - Dont Miss The Train guitar tab

-*-*-*-*-*-*-*-*-*-*-*-*-*-*-*-*-*-*-*-*-*-*-*-*-*-*-*-*-*-*-*-*-*-*-*-

Song: dont miss the train

Artist: no use for a name

Author: Roy Stevenson (are_you_done@yahoo.com)

Tuning: standard

-*-*-*-*-*-*-*-*-*-*-*-*-*-*-*-*-*-*-*-*-*-*-*-*-*-*-*-*-*-*-*-*-*-*-*-

Guitar 1 "Guitar 2 Comes In Here"

Intro V

e-|----------------------------------------------------|----------------------|

B-|----------------------------------------------------|----------------------|

G-|----------------------------------------------------|----------------------|

D-|-7-X-X-10/12-15-14-10-10-10-7-X-X-10/12-15-17-17-17-|-7-X-X-10/12-15-14-10-|

A-|-7-X-X-10/12-15-14-10-10-10-7-X-X-10/12-15-17-17-17-|-7-X-X-10/12-15-14-10-|

E-|-5-X-X-8 /10-13-12-8- 8- 8- 5-X-X-8/ 10-13-15-15-15-|-5-X-X-8 /10-13-12-8- |

e-|---------------------------------------------------------------------------|

B-|---------------------------------------------------------------------------|

G-|---------------------------------------------------------------------------|

D-|-10-10-7-X-X-10/12-15-14-17-17-17-7-X-X-10/12-15-14-10-10-10-7-X-X-10/12---|

A-|-10-10-7-X-X-10/12-15-14-17-17-17-7-X-X-10/12-15-14-10-10-10-7-X-X-10/12---|

E-|-8- 8- 5-X-X-8 /10-13-12-15-15-15-5-X-X-8/ 10-13-12-8- 8- 8- 5-X-X-8 /10---|

e-|---------------------------------------------------------------------------|

B-|---------------------------------------------------------------------------|

G-|---------------------------------------------------------------------------|

D-|-14-10-10-10-7-X-X-10/12-15-14-17-17-17-7-X-X-10/12-15-14-10-10-10---------|

A-|-14-10-10-10-7-X-X-10/12-15-14-17-17-17-7-X-X-10/12-15-14-10-10-10---------|

E-|-12-8- 8- 8- 5-X-X-8 /10-13-12-15-15-15-5-X-X-8/ 10-13-12-8- 8- 8----------|

Guitar 2 [Comes in to play with guitar 1 after first set of Riffs]"I MARKED IT"

Intro

e-|---------------------------------------------------|-----------------------|

B-|---------------------------------------------------|-----------------------|

G-|---------------------------------------------------|-----------------------|

D-|-7-7-7-7-7-7-7-7-7-7-7-7-7-7-7-7-7-7-7-7-7-7-7-7-7-|-X-X-7-X-X-7-15-14-10--|

A-|---------------------------------------------------|-X-X-7-X-X-7-15-14-10--|

E-|---------------------------------------------------|-X-X-5-X-X-5-13-12-8- -|

|

e-|---------------------------------------------------------------------------|

B-|---------------------------------------------------------------------------|

G-|---------------------------------------------------------------------------|

D-|-10-10-X-X-7-X-X-7-15-14-17-17-17-X-X-7-X-X-7-15-14-10-10-10-X-X-7-X-X-7-15|

A-|-10-10-X-X-7-X-X-7-15-14-17-17-17-X-X-7-X-X-7-15-14-10-10-10-X-X-7-X-X-7-15|

E-|-8- 8- X-X-5-X-X-5-13-12-15-15-15-X-X-5-X-X-5-13-12-8- 8- 8- X-X-5-X-X-5-13|

e-|---------------------------------------------------------------------------|

B-|---------------------------------------------------------------------------|

G-|---------------------------------------------------------------------------|

D-|-14-17-17-17---------------------------------------------------------------|

A-|-14-17-17-17---------------------------------------------------------------|

E-|-12-15-15-15---------------------------------------------------------------|

Guitar 1 and 2 (Play the same cords after intro)

e-|---------------------------------------------------------------------------|

B-|---------------------------------------------------------------------------|

G-|---------------------------------------------------------------------------|

D-|-X-X-7-X-X-7-X-X-5-X-X-5-X-X-7-X-X-7-X-X-10-X-X-10-X-X-7-X-X-7-X-X-5-X-X-5-|

A-|-X-X-7-X-X-7-X-X-5-X-X-5-X-X-7-X-X-7-X-X-10-X-X-10-X-X-7-X-X-7-X-X-5-X-X-5-|

E-|-X-X-5-X-X-5-X-X-3-X-X-3-X-X-5-X-X-5-X-X-8- X-X-8- X-X-5-X-X-5-X-X-3-X-X-3-|

e-|-----------------------|---------------------------------------------------|

B-|-----------------------|---------------------------------------------------|

G-|-----------------------|---------------------------------------------------|

D-|-3-3-3-3/10-10-10-7-7-7|-X-X-7-X-X-7-X-X-5-X-X-5-X-X-7-X-X-7-X-X-10-X-X-10-|

A-|-3-3-3-3/10-10-10-7-7-7|-X-X-7-X-X-7-X-X-5-X-X-5-X-X-7-X-X-7-X-X-10-X-X-10-|

E-|-1-1-1-1/8- 8- 8- 5-5-5|-X-X-5-X-X-5-X-X-3-X-X-3-X-X-5-X-X-5-X-X-8- X-X-8- |

e-|------------------------------------------------|--------------------------|

B-|------------------------------------------------|--------------------------|

G-|------------------------------------------------|--------------------------|

D-|-X-X-7-X-X-7-X-X-5-X-X-5-3-3-3-3/10-10-10-7-7-7-|-7-7-7/8-8-8/10-10-10/12--|

A-|-X-X-7-X-X-7-X-X-5-X-X-5-3-3-3-3/10-10-10-7-7-7-|-7-7-7/8-8-8/10-10-10/12--|

E-|-X-X-5-X-X-5-X-X-3-X-X-3-1-1-1-1/8- 8- 8- 5-5-5-|-5-5-5/6-6-6/8- 8- 8/ 10--|

e-|---------------------------------------------------------------------------|

B-|---------------------------------------------------------------------------|

G-|---------------------------------------------------------------------------|

D-|-12-12-12-12-7-7-7/8-8-8/10-10-10/12-12-12-12-12-7-X-X-X-X-3-3-3/10-10-10--|

A-|-12-12-12-12-7-7-7/8-8-8/10-10-10/12-12-12-12-12-7-X-X-X-X-3-3-3/10-10-10--|

E-|-10-10-10-10-5-5-5/6-6-6/8- 8- 8/ 10-10-10-10-10-5-X-X-X-X-1-1-1/8- 8- 8- -|

e-|---------------------------------------------------------------------------|

B-|---------------------------------------------------------------------------|

G-|---------------------------------------------------------------------------|

D-|-10-12-12-12-X-X-X-X-X-X-X-X-X-X-X-X-7-X-X-10/12-15-14-10-10-10-7-X-X-10/12|

A-|-10-12-12-12-X-X-X-X-X-X-X-X-X-X-X-X-7-X-X-10/12-15-14-10-10-10-7-X-X-10/12|

E-|-8- 10-10 10-X-X-X-X-X-X-X-X-X-X-X-X-5-X-X-8/ 10-13-12-8- 8- 8- 5-X-X-8/ 10|

e-|---------------------------------------------------------------------------|

B-|---------------------------------------------------------------------------|

G-|---------------------------------------------------------------------------|

D-|-15-14-17-17-17-7-X-X-10/12-15-14-10-10-10-7-X-X-10/12-15-14-17-17-17------|

A-|-15-14-17-17-17-7-X-X-10/12-15-14-10-10-10-7-X-X-10/12-15-14-17-17-17------|

E-|-13-12-15-15-15-5-X-X-8/ 10-13-12-8- 8- 8- 5-X-X-8/ 10-13-12-15-15-15------|

e-|---------------------------------------------------------------------------|

B-|---------------------------------------------------------------------------|

G-|---------------------------------------------------------------------------|

D-|-X-X-7-X-X-7-X-X-5-X-X-5-X-X-7-X-X-7-X-X-10-X-X-10-X-X-7-X-X-7-X-X-5-X-X-5-|

A-|-X-X-7-X-X-7-X-X-5-X-X-5-X-X-7-X-X-7-X-X-10-X-X-10-X-X-7-X-X-7-X-X-5-X-X-5-|

E-|-X-X-5-X-X-5-X-X-3-X-X-3-X-X-5-X-X-5-X-X-8- X-X-8- X-X-5-X-X-5-X-X-3-X-X-3-|

e-|-----------------------|---------------------------------------------------|

B-|-----------------------|---------------------------------------------------|

G-|-----------------------|---------------------------------------------------|

D-|-3-3-3-3/10-10-10-7-7-7|-X-X-7-X-X-7-X-X-5-X-X-5-X-X-7-X-X-7-X-X-10-X-X-10-|

A-|-3-3-3-3/10-10-10-7-7-7|-X-X-7-X-X-7-X-X-5-X-X-5-X-X-7-X-X-7-X-X-10-X-X-10-|

E-|-1-1-1-1/8- 8- 8- 5-5-5|-X-X-5-X-X-5-X-X-3-X-X-3-X-X-5-X-X-5-X-X-8- X-X-8- |

e-|---------------------------------------------------------------------------|

B-|---------------------------------------------------------------------------|

G-|---------------------------------------------------------------------------|

D-|-X-X-7-X-X-7-X-X-5-X-X-5-3-3-3-3/10-10-10-7-7-7-|-7-7-7/8-8-8/10-10-10/12--|

A-|-X-X-7-X-X-7-X-X-5-X-X-5-3-3-3-3/10-10-10-7-7-7-|-7-7-7/8-8-8/10-10-10/12--|

E-|-X-X-5-X-X-5-X-X-3-X-X-3-1-1-1-1/8- 8- 8- 5-5-5-|-5-5-5/6-6-6/8- 8- 8/ 10--|

e-|---------------------------------------------------------------------------|

B-|---------------------------------------------------------------------------|

G-|---------------------------------------------------------------------------|

D-|-12-12-12-12-7-7-7/8-8-8/10-10-10/12-12-12-12-12-7-X-X-X-X-3-3-3/10-10-10--|

A-|-12-12-12-12-7-7-7/8-8-8/10-10-10/12-12-12-12-12-7-X-X-X-X-3-3-3/10-10-10--|

E-|-10-10-10-10-5-5-5/6-6-6/8- 8- 8/ 10-10-10-10-10-5-X-X-X-X-1-1-1/8- 8- 8- -|

SOLO STARTS

v

e-|-------------------------------------|----------------------------|--------|

B-|-------------------------------------|----------------------------|--------|

G-|-------------------------------------|----------------------------|--------|

D-|-10-12-12-12-X-X-X-X-X-X-X-X-X-X-X-X-|-7-7--7-7--7-7--7-7-7-7-7-7-|-7-7-7-7|

A-|-10-12-12-12-X-X-X-X-X-X-X-X-X-X-X-X-|-7-7--7-7--7-7--7-7-7-7-7-7-|--------|

E-|-8- 10-10 10-X-X-X-X-X-X-X-X-X-X-X-X-|-5-5--5-5--5-5--5-5-5-5-5-5-|--------|

e-|---------------------------------------------------------------------------|

B-|---------------------------------------------------------------------------|

G-|-9---------7---------9-10-9-7---------9---------7---------9-10-9-12--------|

D-|---5-5-5-5---7-7-7-7----------7-7-7-7---5-5-5-5---7-7-7-7------------------|

A-|---------------------------------------------------------------------------|

E-|---------------------------------------------------------------------------|

e-|---------------------------------------------------------------------------|

B-|---------------------------------------------------------------------------|

G-|---------------------------------------------------------------------------|

D-|-X-X-7-X-X-7-X-X-5-X-X-5-X-X-7-X-X-7-X-X-10-X-X-10-X-X-7-X-X-7-X-X-5-X-X-5-|

A-|-X-X-7-X-X-7-X-X-5-X-X-5-X-X-7-X-X-7-X-X-10-X-X-10-X-X-7-X-X-7-X-X-5-X-X-5-|

E-|-X-X-5-X-X-5-X-X-3-X-X-3-X-X-5-X-X-5-X-X-8- X-X-8- X-X-5-X-X-5-X-X-3-X-X-3-|

e-|-----------------------|---------------------------------------------------|

B-|-----------------------|---------------------------------------------------|

G-|-----------------------|---------------------------------------------------|

D-|-3-3-3-3/10-10-10-7-7-7|-X-X-7-X-X-7-X-X-5-X-X-5-X-X-7-X-X-7-X-X-10-X-X-10-|

A-|-3-3-3-3/10-10-10-7-7-7|-X-X-7-X-X-7-X-X-5-X-X-5-X-X-7-X-X-7-X-X-10-X-X-10-|

E-|-1-1-1-1/8- 8- 8- 5-5-5|-X-X-5-X-X-5-X-X-3-X-X-3-X-X-5-X-X-5-X-X-8- X-X-8- |

e-|------------------------------------------------|--------------------------|

B-|------------------------------------------------|--------------------------|

G-|------------------------------------------------|--------------------------|

D-|-X-X-7-X-X-7-X-X-5-X-X-5-3-3-3-3/10-10-10-7-7-7-|-7-7-7/8-8-8/10-10-10/12--|

A-|-X-X-7-X-X-7-X-X-5-X-X-5-3-3-3-3/10-10-10-7-7-7-|-7-7-7/8-8-8/10-10-10/12--|

E-|-X-X-5-X-X-5-X-X-3-X-X-3-1-1-1-1/8- 8- 8- 5-5-5-|-5-5-5/6-6-6/8- 8- 8/ 10--|

e-|---------------------------------------------------------------------------|

B-|---------------------------------------------------------------------------|

G-|---------------------------------------------------------------------------|

D-|-12-12-12-12-7-7-7/8-8-8/10-10-10/12-12-12-12-12-7-X-X-X-X-3-3-3/10-10-10--|

A-|-12-12-12-12-7-7-7/8-8-8/10-10-10/12-12-12-12-12-7-X-X-X-X-3-3-3/10-10-10--|

E-|-10-10-10-10-5-5-5/6-6-6/8- 8- 8/ 10-10-10-10-10-5-X-X-X-X-1-1-1/8- 8- 8- -|

e-|---------------------------------------------------------------------------|

B-|---------------------------------------------------------------------------|

G-|---------------------------------------------------------------------------|

D-|-10-12-12-12-X-X-X-X-X-X-X-X-X-X-X-X-7-X-X-10/12-15-14-10-10-10-7-X-X-10/12|

A-|-10-12-12-12-X-X-X-X-X-X-X-X-X-X-X-X-7-X-X-10/12-15-14-10-10-10-7-X-X-10/12|

E-|-8- 10-10 10-X-X-X-X-X-X-X-X-X-X-X-X-5-X-X-8/ 10-13-12-8- 8- 8- 5-X-X-8/ 10|

e-|---------------------------------------------------------------------------|

B-|---------------------------------------------------------------------------|

G-|---------------------------------------------------------------------------|

D-|-15-14-17-17-17-7-X-X-10/12-15-14-10-10-10-7-X-X-10/12-15-14-17-17-17------|

A-|-15-14-17-17-17-7-X-X-10/12-15-14-10-10-10-7-X-X-10/12-15-14-17-17-17------|

E-|-13-12-15-15-15-5-X-X-8/ 10-13-12-8- 8- 8- 5-X-X-8/ 10-13-12-15-15-15------|

e-|---------------------------------------------------------------------------|

B-|---------------------------------------------------------------------------|

G-|---------------------------------------------------------------------------|

D-|-7-7-X-7--7-7--------------------------------------------------------------|

A-|-7-7-X-7--7-7--------------------------------------------------------------|

E-|-5-5-X-5--5-5--------------------------------------------------------------|

Get this song at:  amazon.com sheetmusicplus.com

Share your thoughts

0 Comments found