No Use for a Name

No Use for a Name - Dont Miss The Train bass tab

Song: Don`t miss the train

By: No use for a name

Album: don`t miss the train

Tabbed By: Carlos Pino

G-|---------------------------------------------------------------------------|

D-|----------------------------------------------------------------------------

A-|---------------------------------------------------------------------------|

E-|-5-X-X-8 /10-13-12-8- 8- 8- 5-X-X-8/ 10-13-15-15-15-|-5-X-X-8 /10-13-12-8- |

G-|---------------------------------------------------------------------------|

D-|---------------------------------------------------------------------------|

A-|---------------------------------------------------------------------------|

E-|-8- 8- 5-X-X-8 /10-13-12-15-15-15-5-X-X-8/ 10-13-12-8- 8- 8- 5-X-X-8 /10---|

G-|---------------------------------------------------------------------------|

D-|---------------------------------------------------------------------------|

A-|---------------------------------------------------------------------------|

E-|-12-8- 8- 8- 5-X-X-8 /10-13-12-15-15-15-5-X-X-8/ 10-13-12-8- 8- 8----------|

G-|---------------------------------------------------------------------------|

D-|---------------------------------------------------------------------------|

A-|---------------------------------------------------------------------------|

E-|-8- 8- X-X-5-X-X-5-13-12-15-15-15-X-X-5-X-X-5-13-12-8- 8- 8- X-X-5-X-X-5-13|

G-|---------------------------------------------------------------------------|

D-|---------------------------------------------------------------------------|

A-|---------------------------------------------------------------------------|

E-|-12-15-15-15---------------------------------------------------------------|

G-|---------------------------------------------------------------------------|

D-|---------------------------------------------------------------------------|

A-|---------------------------------------------------------------------------|

E-|-X-X-5-X-X-5-X-X-3-X-X-3-X-X-5-X-X-5-X-X-8- X-X-8- X-X-5-X-X-5-X-X-3-X-X-3-|

G-|---------------------------------------------------------------------------|

D-|---------------------------------------------------------------------------|

A-|---------------------------------------------------------------------------|

E-|-1-1-1-1/8- 8- 8- 5-5-5|-X-X-5-X-X-5-X-X-3-X-X-3-X-X-5-X-X-5-X-X-8- X-X-8- |

G-|------------------------------------------------|--------------------------|

D-|---------------------------------------------------------------------------|

A-|---------------------------------------------------------------------------|

E-|-X-X-5-X-X-5-X-X-3-X-X-3-1-1-1-1/8- 8- 8- 5-5-5-|-5-5-5/6-6-6/8- 8- 8/ 10--|

G-|---------------------------------------------------------------------------|

D-|------------------------------------------------------------------------------

A-|---------------------------------------------------------------------------|

E-|-10-10-10-10-5-5-5/6-6-6/8- 8- 8/ 10-10-10-10-10-5-X-X-X-X-1-1-1/8- 8- 8- -|

G-|---------------------------------------------------------------------------|

D-|-------------------------------------------------------------------------------

A-|---------------------------------------------------------------------------|

E-|-13-12-15-15-15-5-X-X-8/ 10-13-12-8- 8- 8- 5-X-X-8/ 10-13-12-15-15-15------|

G-|---------------------------------------------------------------------------|

D-|---------------------------------------------------------------------------|

A-|---------------------------------------------------------------------------|

E-|-X-X-5-X-X-5-X-X-3-X-X-3-X-X-5-X-X-5-X-X-8- X-X-8- X-X-5-X-X-5-X-X-3-X-X-3-|

G-|-----------------------|---------------------------------------------------|

D-|---------------------------------------------------------------------------|

A-|----------------------------------------------------------------------------

E-|-1-1-1-1/8- 8- 8- 5-5-5|-X-X-5-X-X-5-X-X-3-X-X-3-X-X-5-X-X-5-X-X-8- X-X-8- |

G-|---------------------------------------------------------------------------|

D-|---------------------------------------------------------------------------|

A-|----------------------------------------------------------------------------

E-|-X-X-5-X-X-5-X-X-3-X-X-3-1-1-1-1/8- 8- 8- 5-5-5-|-5-5-5/6-6-6/8- 8- 8/ 10--|

G-|---------------------------------------------------------------------------|

D-|---------------------------------------------------------------------------|

A-|---------------------------------------------------------------------------|

E-|-10-10-10-10-5-5-5/6-6-6/8- 8- 8/ 10-10-10-10-10-5-X-X-X-X-1-1-1/8- 8- 8- -|

G-|---------------------------------------------------------------------------|

D-|---------------------------------------------------------------------------|

A-|---------------------------------------------------------------------------|

E-|-X-X-5-X-X-5-X-X-3-X-X-3-X-X-5-X-X-5-X-X-8- X-X-8- X-X-5-X-X-5-X-X-3-X-X-3-|

G-|---------------------------------------------------------------------------|

D-|---------------------------------------------------------------------------|

A-|---------------------------------------------------------------------------|

E-|-1-1-1-1/8- 8- 8- 5-5-5|-X-X-5-X-X-5-X-X-3-X-X-3-X-X-5-X-X-5-X-X-8- X-X-8- |

G-|---------------------------------------------------------------------------|

D-|----------------------------------------------------------------------------

A-|---------------------------------------------------------------------------|

E-|-X-X-5-X-X-5-X-X-3-X-X-3-1-1-1-1/8- 8- 8- 5-5-5-|-5-5-5/6-6-6/8- 8- 8/ 10--|

G-|---------------------------------------------------------------------------|

D-|---------------------------------------------------------------------------|

A-|---------------------------------------------------------------------------|

E-|-10-10-10-10-5-5-5/6-6-6/8- 8- 8/ 10-10-10-10-10-5-X-X-X-X-1-1-1/8- 8- 8- -|

G-|---------------------------------------------------------------------------|

D-|---------------------------------------------------------------------------|

A-|---------------------------------------------------------------------------|

E-|-13-12-15-15-15-5-X-X-8/ 10-13-12-8- 8- 8- 5-X-X-8/ 10-13-12-15-15-15------|

G-|---------------------------------------------------------------------------|

D-|---------------------------------------------------------------------------|

A-|---------------------------------------------------------------------------|

E-|-5-5-X-5--5-5--------------------------------------------------------------|

Get this song at:  amazon.com sheetmusicplus.com

Share your thoughts

0 Comments found