No Use for a Name

No Use for a Name - DMV guitar tab

-------------------------------------------------------------------------------

DMV - No Use For A Name

-------------------------------------------------------------------------------

By: Jeff Munt

e-|-----------------------------------------------------------------------

B-|-----------------------------------------------------------------------

G-|-----------------------------------------------------------------------

D-|-----------------------------------------------------------------------

A-|-12-12-12-12-12-12-12-12-10-10-10-10-10-10-10-10-8-8-8-8-8-8-8-8-10-10-

E-|-----------------------------------------------------------------------

e-|-------------------------------------------------------------------------

B-|-------------------------------------------------------------------------

G-|-------------------------------------------------------------------------

D-|-------------------------------------------------------------------------

A-|-10-10-10-10-10-10-12-12-12-12-12-12-12-12-10-10-10-10-10-10-10-10-8-8-8-

E-|-------------------------------------------------------------------------

e-|---------------------------|--------------------------------------------

B-|---------------------------|--------------------------------------------

G-|---------------------------|--------------------------9-9-7-------------

D-|---------------------------|----------------------9-9-------9-----------

A-|-8-8-8-8-8-7-7-7-7-7-7-7-7-|-7-7-5-7-10-9-9-9-9-9-7-7---------10-10-10--

E-|---------------------------|-5-5-3-5--8-7-7-7-7-7--------------8--8--8--

e-|-------------------------------------------------------------------------

B-|-------------------------------------------------------------------------

G-|--------------------------9-9-7--------------------------------------9-9-

D-|----------------------9-9-------9--------------------------------9-9-----

A-|-7-7-5-7-10-9-9-9-9-9-7-7---------10-10-10--7-7-5-7-10-9-9-9-9-9-7-7-----

E-|-5-5-3-5--8-7-7-7-7-7--------------8--8--8--5-5-3-5--8-7-7-7-7-7---------

e-|---------------------------------------------------------|-------------

B-|---------------------------------------------------------|-------------

G-|-7-------------------------------------9-9-7-------------|-------------

D-|---9-------------------------------9-9-------9-----------|-4-4-4-------

A-|-----10-10-10-7-7-5-7-10-9-9-9-9-9-7-7---------10-10-10--|-2-2-2-5-5-5-

E-|------8--8--8-5-5-3-5--8-7-7-7-7-7--------------8--8--8--|-------3-3-3-

e-|-------------|-----------------------------------------------------------

B-|-------------|-----------------------------------------------------------

G-|-------------|-----------------------------------------------------------

D-|-------------|-4-4-4-4-4-4-4-4-------------------------------------------

A-|-2-2-2-4-4-4-|-2-2-2-2-2-2-2-2-5-5-5-5-5-5-5-5-2-2-2-2-2-2-2-2-4-4-4-4-4-

E-|-0-0-0-2-2-2-|-----------------3-3-3-3-3-3-3-3-0-0-0-0-0-0-0-0-2-2-2-2-2-

e-|-----------------------------------------------------------------------|

B-|-----------------------------------------------------------------------|

G-|-----------------------------------------------------------------------|

D-|-------4-4-4-4-4-4-4-4-------------------------------------------------|

A-|-4-4-4-2-2-2-2-2-2-2-2-5-5-5-5-5-5-5-5-2-2-2-2-2-2-2-2-4-4-4-4-4-4-4-4-|

E-|-2-2-2-----------------3-3-3-3-3-3-3-3-0-0-0-0-0-0-0-0-2-2-2-2-2-2-2-2-|

e-|-------------------------------------------------------------------------

B-|-------------------------------------------------------------------------

G-|-------------------------------------------------------------------------

D-|-4-4-4-4-------------------------4-4-4-4-------------------------4-4-4-4-

A-|-2-2-2-2-5-5-5-5-2-2-2-2-4-4-4-4-2-2-2-2-5-5-5-5-2-2-2-2-4-4-4-4-2-2-2-2-

E-|---------3-3-3-3-0-0-0-0-2-2-2-2---------3-3-3-3-0-0-0-0-2-2-2-2---------

e-|------------------------------------------------------------------------|

B-|------------------------------------------------------------------------|

G-|------------------------------------------------------------------------|

D-|-------------------------4-4-4-4----------------------------------------|

A-|-5-5-5-5-2-2-2-2-4-4-4-4-2-2-2-2-5-5-5-5-2-2-2-2-2-2-2-2-2-2-2-4-5-4--7-|

E-|-3-3-3-3-0-0-0-0-2-2-2-2---------3-3-3-3-0-0-0-0-0-0-0-0-0-0-0-2-3-2--5-|

e-|-------------------------------------------------|-----------------------

B-|-------------------------------------------------|-----------------------

G-|-------------------------------------------------|-----------------------

D-|-4-4---------4-4---------4-4---------4-4---------|-7-7-7-7-7-7-7-7-10-10-

A-|-2-2-5-5-4-2-2-2-5-5-4-2-2-2-5-5-4-2-2-2-5-5-4-2-|-5-5-5-5-5-5-5-5--8--8-

E-|-----3-3-2-0-----3-3-2-0-----3-3-2-0-----3-3-2-0-|-----------------------

e-|-------------------------------------------------------------------------

B-|-------------------------------------------------------------------------

G-|-------------------------------------------------------------------------

D-|-10-10-5-5-5-5-7-7-7-7-7-7-7-7-10-10-10-10-5-5-5-5-7-7-7-7-7-7-7-7-10-10-

A-|--8--8-3-3-3-3-5-5-5-5-5-5-5-5--8--8--8--8-3-3-3-3-5-5-5-5-5-5-5-5--8--8-

E-|-------------------------------------------------------------------------

e-|---------------------------------------------------|---------------------

B-|---------------------------------------------------|---------------------

G-|---------------------------------------------------|---------------------

D-|-10-10-5-5-5-5-7-7-7-7-7-7-7-7-10-10-10-10-9-9-9-9-|---------------7-7-7-

A-|--8--8-3-3-3-3-5-5-5-5-5-5-5-5--8--8--8--8-7-7-7-7-|-8-8-8-8-10-11-5-5-5-

E-|---------------------------------------------------|-6-6-6-6--8--9-------

e-|-------------------------------------------------------------------------|

B-|-------------------------------------------------------------------------|

G-|-------------------------------------------------------------------------|

D-|-7---------------7-x-7-x-7--------11-11-11-11-11-11-11-11-11-11-11-11-11-|

A-|-5-8-8-8-8-10-11-5-x-5-x-5-7-9-10--9--9--9--9--9--9--9--9--9--9--9--9--9-|

E-|---6-6-6-6--8--9-----------5-7--8----------------------------------------|

e-|-------------------------------------------------------------------------

B-|-------------------------------------------------------------------------

G-|-7-x-5-x-----------7-x-5-x-----------7-x-5-x-----------7-x-5-x-----------

D-|---------8-x-5-7-8---------8-x-5-7-8---------8-x-5-7-8---------8-x-5-7-8-

A-|-------------------------------------------------------------------------

E-|-------------------------------------------------------------------------

e-|-------------------------------------------------------------------------|

B-|-------------------------------------------------------------------------|

G-|-7-x-5-x-----------7-x-5-x-----------7-x-5-x-----------7-x-5-x-----------|

D-|---------8-x-5-7-8---------8-x-5-7-8---------8-x-5-7-8---------8-x-5-7-8-|

A-|-------------------------------------------------------------------------|

E-|-------------------------------------------------------------------------|

e-|--------------------------------------------------------------------------

B-|--------------------------------------------------------------------------

G-|--------------------------------------------------------------------------

D-|-7-7-9-9-10-7-7-9-9-10-7-9-10-7-7-9-9-10-7-7-9-9-10-7-9-10-7--7-5---------

A-|-5-5-7-7--8-5-5-7-7--8-5-7--8-5-5-7-7--8-5-5-7-7--8-5-7--8-5--5-3-8-5-7-8-

E-|------------------------------------------------------------------6-3-5-6-

e-|-------------------------|-----------------------------------------------

B-|-------------------------|-----------------------------------------------

G-|-------------------------|-----------------------------------------------

D-|-7-5---------7-5---------|-----------------------7-----------------------

A-|-5-3-8-5-7-8-5-3-8-5-7-8-|-2-2-2-4-5-7-8-7-5-7-8-5-2-2-2-4-5-7-8-7-5-7-8-

E-|-----6-3-5-6-----6-3-5-6-|-0-0-0-2-3-5-6-5-3-5-6---0-0-0-2-3-5-6-5-3-5-6-

e-|-------------------------------------------------------------------------|

B-|-------------------------------------------------------------------------|

G-|-------------------------------------------------------------------------|

D-|-7-----------------------7-----------------------7---------------------7-|

A-|-5-2-2-2-4-5-7-8-7-5-7-8-5-2-2-2-4-5-7-8-7-5-7-8-5-2-2-4-5-7-8-7-5-7-8-5-|

E-|---0-0-0-2-3-5-6-5-3-5-6---0-0-0-2-3-5-6-5-3-5-6---0-0-2-3-5-6-5-3-5-6---|

e-|-------------------------------------------------------------------------

B-|-------------------------------------------------------------------------

G-|-------------------------------------------------------------------------

D-|-4-4-4-4-------------------------4-4-4-4-------------------------4-4-4-4-

A-|-2-2-2-2-5-5-5-5-2-2-2-2-4-4-4-4-2-2-2-2-5-5-5-5-2-2-2-2-4-4-4-4-2-2-2-2-

E-|---------3-3-3-3-0-0-0-0-2-2-2-2---------3-3-3-3-0-0-0-0-2-2-2-2---------

e-|------------------------------------------------------------------------|

B-|------------------------------------------------------------------------|

G-|------------------------------------------------------------------------|

D-|-------------------------4-4-4-4----------------------------------------|

A-|-5-5-5-5-2-2-2-2-4-4-4-4-2-2-2-2-5-5-5-5-2-2-2-2-2-2-2-2-2-2-2-4-5-4--7-|

E-|-3-3-3-3-0-0-0-0-2-2-2-2---------3-3-3-3-0-0-0-0-0-0-0-0-0-0-0-2-3-2--5-|

e-|-----------------------------------------------------------------------|

B-|-----------------------------------------------------------------------|

G-|-----------------------------------------------------------------------|

D-|-4-4-4-4-4-4-4-4-4-4-4-4-4-4-4-4-4-4-4-4-4-4-4-4-4-4-4-4-4-4-4-4-4-4-4-|

A-|-2-2-2-2-2-2-2-2-2-2-2-2-2-2-2-2-2-2-2-2-2-2-2-2-2-2-2-2-2-2-2-2-2-2-2-|

E-|-----------------------------------------------------------------------|

-------------------------------------------------------------------------------

Get this song at:  amazon.com sheetmusicplus.com

Share your thoughts

0 Comments found