No Use for a Name

No Use for a Name - Dive For Me guitar tab

INVINCIBLE by No Use for a Name. Album : Live in a Dive (2001) 1/2

No wonder that they launch this live-album with this masterpiece! When you add

this much speed and energy to it, it even gets more better!

A=left guitar B=right guitar A&B=both

:

# intro #A *=play 5-6X m=palm-mute

E----mmmmmm--mmmmmm--mmmmmm--mm--mm--mmmmmm--mmmmmm--mmmmmmm--------|

B-------------------------------------------------------------------|

G----------55------77----------------------55------77--------*------|

D---2------555555557777777755------22------555555557777777775----*--|

A---222222233333333555555555555555522222222333333335555555555---5---|

E---000000033333333555555553333222200000000333333335555555553---2---|

# intro #A *=play 5-6X m=palm-mute

E----mmmmmm--mmmmmm--mmmmmm--mm--mm--mmmmmm--mmmmmm--mmmmmmm--------|

B-------------------------------------------------------------------|

G----------55------77----------------------55------77--------*------|

D---2------555555557777777755------22------555555557777777775----*--|

A---222222233333333555555555555555522222222333333335555555555---5---|

E---0000000----------------3333222200000000-----------------3---2---|

: |on

# main #A *=play 12X #=play 5-7X "=play 3X |verse

E------------------------------------------------------------------------|

B----*-------*-------*-------*-"------*------*-------*-------#--"--------|

G--12-------9------11------16-14161412-----12------11------16--14-1614-9\\|

D----------------------------------------------------------------------9\\|

A--10-------7-------9------14-12141210-----10-------9------14--12-1412-7\\|

E------------------------------------------------------------------------|

# main #B *=play 12X #=play 5-7X "=play 3X

E----------------------------------------------------------------------|

B------------*-------*-------*---------------*-------*-----------------|

G----*------5-------7-------4--------*------5-------7--------#---------|

D---2-------5-------7-------4-------2-------5-------7-------5---"--5---|

A---2-------3-------5-------2-------2-------3-------5-------5---5--5-5-|

E---0-------------------------------0-----------------------3---2--3-2-|

: !A continues from main!

# verse #A&B *=play 14X #=play 5-7X

E---/--------------!use-lots-of-palm-muting!---------------\\--------|

B------------*-------*-----------------------*-------*--------------|

G----*------5-------7--------#-------*------5-------7--------#------|

D---2-------5-------7-------5----#--2-------5-------7-------5----#--|

A---2-------3-------5-------5---5---2-------3-------5-------5---5---|

E---0-----------------------3---2---0-----------------------3---2---|

:

# pre-chorus #A&B *=play 12X #=play 5-7X

E-------------------------------------------------------------------|

B--------------------*-------------------------------*--------------|

G----*-------#------7--------#-------*-------#------7--------#------|

D---2-------7----#--7-------5----#--2-------7----#--7-------5----#--|

A---2-------7---7---5-------5---5---2-------7---7---5-------5---5---|

E---0-------5---3-----------3---2---0-------5---3-----------3---2---|

:

# chorus # *=play 12X #=play 5-7X

E-------------------------------------------------------------------|

B----*-------*-------*-------#---#---*-------*-------*-------#---#--|

G---5-------7-------4-------9---7---5-------2-------4-------5---7---|

D---5-------7-------4-------9---7---5-------2-------1-------5---7---|

A---3-------5-------2-------7---5---3-------0-------2-------3---5---|

E-------------------------------------------------------------------|

: !B plays mainB!

# solo #A h=hammer-on p=pull-off b=bend-up one step v=vibrato >

E------------------------------------------------------------------->

B------------------------------------------------------------------->

G------------------------------------------------------------------->

D-----------5--4--5-4----------------------------------------------->

A---7-----7-------------5------------------------------------------->

E---------------------------7v----7-3--2--3/7---7--/8--7--5-7v----//>

>>>>>>>>to next page...

:

INVINCIBLE 2/2

:

>soloA p

>-------------------12-------12--1412-1412--12----p--------------------->

>---------------------1215-----12---------14--121512--p-p-----h---p-p--->

>----p-----h-1214--------b--------------------------151412--1214151412-->

>--1412-h1214---b-----------------------------------------14----------14>

>------14--------------------------------------------------------------->

>//-----------------------------!FAST!---------------------------------->

>soloA

>--------------------p-------p-15----v15b---|

>----h---p-p-------151215--1512-b-----15b---| > Then play A&BverseA&B,

>--121415141214---------b-------------------| A&Bpre-chorusA&B and

>-------------b-----------------------------| A&BchorusA&B.

>-------------------------------------------|

>-------------------------------------------|

: !B plays mainB (!end with 1st chord!)!

# main2 #A *=play 12X #=play 5-7X "=play 3X

E------------------------------------------------------------------------|

B----*-------*-------*-------*-"------*------*-------*-------#--"--------|

G--12-------9------11------16-14161412-----12------11------16--14-161412\\|

D-----------------------------------------------------------------------\\|

A--10-------7-------9------14-12141210-----10-------9------14--12-141210\\|

E------------------------------------------------------------------Added by tabs-database.com and our distinguished partners

Get this song at:  amazon.com sheetmusicplus.com

Share your thoughts

0 Comments found