No Use for a Name

No Use for a Name - Death Doesn't Care guitar tab

-*-*-*-*-*-*-*-*-*-*-*-*-*-*-*-*-*-*-*-*-*-*-*-*-*-*-*-*-*-*-*-*-*-*-*-

Song: death doesn't care

Artist: no use for a name

Author: Roy Stevenson (are_you_done@yahoo.com)

Tuning: standard

-*-*-*-*-*-*-*-*-*-*-*-*-*-*-*-*-*-*-*-*-*-*-*-*-*-*-*-*-*-*-*-*-*-*-*-

X=Palm Mute

INTRO

e|---------------------------------------------------------------|

B|---------------------------------------------------------------|

G|--9----9---9---7----7----7----7----7-----7----3---3---3--------|

D|----7---7---7---5----5----5----5----5-----5----5---5---5-------|

A|------7---7-------5----5--------5----5-----------5--5----------|

E|---------------------------------------------------------------|

e|---------------------------------------------------------------|

B|---------------------------------------------------------------|

G|--9--9--9--7--7--7--12--12--12--10--10--10---------------------|

D|---7--7--7--5--5--5--10--10--10---8---8---8--------------------|

A|----7--7-----5--5-----10--10-------8---8-----------------------|

E|---------------------------------------------------------------|

SOLO

e|---------------------------------------------------------------|

B|---------8-6-5-8--------8-6-5-8------8-6-5-8-6-5-7-5-3-5-3-----|

G|---5-7-5----------5-7-5---------5-7-5--------------------------|

D|--7--------------7-------------7-------------------------------|

A|---------------------------------------------------------------|

E|---------------------------------------------------------------|

PART I

e|---------------------------------------------------------------|

B|---------------------------------------------------------------|

G|---------------------------------------------------------------|

D|---------------------------------------------------------------|

A|--6666-2222-6666-2222-6666-222-44444444------------------------|

E|--4444-0000-4444-0000-4444-000-22222222------------------------|

xxx xxx xxx xxx xxx xxx

PART II

e|---------------------------------------------------------------|

B|---------------------------------------------------------------|

G|----------666666666666666--------------------------------------|

D|----------444444444444444--------------------------------------|

A|--2222222------------------------------------------------------|

E|--0000000------------------------------------------------------|

xxxxxx xxxxxxxxxxxxxx

PART III(Chorus)

e|-------------------------------|-------------------------------|

B|-------------------------------|-------------------------------|

G|-------------------------------|-------------------------------|

D|------5--------777-------------|-------------------------------|

A|--777-3-555555-555-5-33333333--|--2222222222222222-------------|

E|--555---333333-----3-11111111--|--0000000000000000-------------|

xxx xxx xxx xxx

PART IV

e|----------------------------------------------------------------|

B|----------------------------------------------------------------|

G|----------------------------------------------------------------|

D|--9-7-5-4-------4-----------------------------------------------|

A|--7-5-3-2-7-5-4-2-----------------------------------------------|

E|----------5-3-2-------------------------------------------------|

--------------------------------------------------------------------------------------------------------------------------------------------

Get this song at:  amazon.com sheetmusicplus.com

Share your thoughts

0 Comments found