No Use for a Name

No Use for a Name - Daily Grind guitar tab

Artist:No Use For A Name

Album:The Daily Grind EP

Year:1993

Tabbed By:NoFX_2525

SHORT ALBUM BUT GOOD STUFF...ENJOY!! Here We Go :)

--------------------------------------------------------------------------------

1)Until It's Gone

2)Old What's His Name

3)Feeding The Fire

--------------------------------------------------------------------------------

1)Until It's Gone:

# intro #A&B m=palm-mute #=play 3X

E--|-----A|4X|------|--------------------------------|

B--|-----B|8X|------|--------------------------------|

G--|-mm-mm-mm-mm-m-m|-----------------#--#--#--#-----|

D--|3--2--3--2--3-2-|8--7--5--7--8-7-8--7--5--7--8-7-|

A--|1220221220221202|8--7--5--7--8-7-8--7--5--7--8-7-|

E--|-00-00-00-00-0-0|6--5--3--5--6-5-6--5--3--5--6-5-|

:

# main #A&B +=play 5X with palm-muting >

E-----------------------------------------------------------> /---> A

B-----------------------------------------------------------> /

G----------------------------+--+--------------------------->/

D---88-7-87--+--+---88-7-8712-13-12-88-7-87--+--+---88-7-87->\\

A---88-7-87-5--6--5-88-7-8710-10-10-88-7-87-5--6--5-88-7-87-> \\

E---66-5-65-3--3--3-66-5-65---------66-5-65-3--3--3-66-5-65-> \\---> B

>mainA

>--------------------------------------------------------------------|

>--------------------------------------------------------------------|

>------------------------------------+--+----+--+----+--+------------|

>---5-------6-------7-------6------12-13-1213-14-1314-15-14-6-6--6-6-|

>---5-------6-------7-------6------10-10-1011-11-1112-12-12-6-6--6-6-|

>---3-------4-------5-------4-------------------------------4-4--4-4-|

>mainB

>--------------------------------------------------------------------|

>--------------------------------------------------------------------|

>----+--+----+--+----+--+----+--+----+--+----+--+----+--+------------|

>--12-13-1213-14-1314-15-1413-14-1312-13-1213-14-1314-15-14-6-6--6-6-|

>--10-10-1011-11-1112-12-1211-11-1110-10-1011-11-1112-12-12-6-6--6-6-|

>-----------------------------------------------------------4-4--4-4-|

: +=play 14X with p-m +=play 22X with p-m

# verse #A&B *=play 5-6X #=play 3X # end-verse #A&B

E--|-----|2X|------|---------------------------|----------|

B--|---------*----#|----#-#-----#-#--*---*---*-|----------|

G--|-*---*--8---#-7|-+--8-7--+--8-7-5---3---2--|-+----8---|

D--|5---5--88---8-7|5---8-7-5---8-7-5---3---2--|5-----8-8-|

A--|5---5--86---8-5|5---6-5-5---6-5-3---1---0--|5-----6-8-|

E--|3---3--66---6-5|3-------3------------------|3-----6-6-|

: !B plays verseA&B! +=play 22X with p-m

# verse2 #A *=play 5-6X #=play 3X # end-verse2 #A&B

E--|-----|2X|------|---------------------------|--------------------|

B--|---------*----#|----#-#-----#-#--*---*---*-|-----------+--------|

G--|-*---*--8---#-7|-+--8-7--+--810-5---3---2--|-+----8--10-------7-|

D--|5---5--88---8-7|5---8-7-5-------5---3---2--|5-----8-810-----8-7-|

A--|5---5--86---8-5|5---6-5-5---6-8-3---1---0--|5-----6-8-8-----8-5-|

E--|3---3--66---6-5|3-------3------------------|3-----6-6-------6-5-|

:

# chorus #A *=play 6X #=play 3X

E--|-|3X|--|------------------------------------|

B--|-----*-|-*---*---*---*---*---*---*---*---*--|

G--|#-#-8--|5---4---7---6---6---6---9---8---8---|

D--|5-3-8--|5-----------------------------------|

A--|5-3-6--|3---2---5---4---4---4---7---6---6---|

E--|3-1----|------------------------------------|

# chorus #B *=play 6X #=play 3X

E--|-|3X|--|------------------------------------|

B--|-----*-|-*----------------------------------|

G--|#-#-8--|5----*-------*---*---*-------*---*--|

D--|5-3-8--|5---5----*--4---4---7----*--6---6---|

A--|5-3-6--|3---5---5---4---4---7---7---6---6---|

E--|3-1----|----3---2---2---2---5---4---4---4---|

:

>>>>>>>>>>to next page...

:

:

UNTIL IT'S GONE 2/2

:

# into-solo #A&B X2

E-------------------------------------------------------------------|

B-------------------------------------------------------------------|

G-------------------------------------------------------------------|

D---7---7---7-5-7-8---8-7-8-7-5-3---7---7---7-5-7-8---8-7-810-8-7---|

A---7---7---7-5-7-8---8-7-8-7-5-3---7---7---7-5-7-8---8-7-810-8-7---|

E---5---5---5-3-5-6---6-5-6-5-3-1---5---5---5-3-5-6---6-5-6-8-6-5---|

: !A plays mainA! b=bend up one step v=vibrato

# solo #B h=hammer-on p=pull-off e=bend-up half step k=keep bend >

E--------------------------p-p---------p---p--------------------------->

B------------------------1110-810v---11101110-8-10----8-10-11-13-11-13->

G--------------------------------------------------10------------------>

D---8-8--7--8--7-5-\\\\-------------------------------------------------->

A---------------------------------------------------------------------->

E---------------------------------------------------------------------->

>soloB r=release bend

>----------------------------------13-------------------------------|

>--13b---13k----r11v-------111313b-----k-r11---11----------!join----|

>------------------------12-----------------12-----12v------mainB!--|

>-------------------------------------------------------------------|

>-------------------------------------------------------------------|

>-------------------------------------------------------------------|

:

Then play A&BverseA&B and A&Bend-verse2A&B.

:

# chorus2 #A *=play 6X #=play 3X %=pause

E--|-|3X|--|---------------|------|2X|-----|----|

B--|-----*-|-*-------*---*-|--#--*--#------|----|

G--|#-#-8--|5-------5---8--|#-7-8---8-#--*-11---|

D--|5-3-8--|5---5--55---8--|5-7-8---8-810--|----|

A--|5-3-6--|3---5--53---6--|5-5-6---6-810--|9---|

E--|3-1----|----3--3-------|3---------6-8--|----|

# chorus2 #B *=play 6X #=play 3X %=pause Added by tabs-database.com and our distinguished partners

Get this song at:  amazon.com sheetmusicplus.com

Share your thoughts

0 Comments found