No Use for a Name

No Use for a Name - Daily City Train guitar tab

-------------------------------------------------------------------------------

DAILY CITY TRAIN - No Use For A Name

-------------------------------------------------------------------------------

By:

VERSE (Repeat this progression throughout the verse part)

G F C G

E--------3----------1-----------3-----------3----

B--------3----------1-----------5-----------3----

G--------4----------2-----------5-----------4----

D--------5----------3-----------5-----------5----

A--------5----------3-----------3-----------5----

E--------3----------1-----------------------3----

CHORUS (uses VERSE chords in a different progression)

C F G (keep playing

G chord during lead riff)

Jacko had a beer in his hand last time I seen him

LEAD RIFF IN CHORUS

E-------------------------------------------------------------------

B-------------------------------------------------------------------Gradually bend and

G--------3----5--5--5--5---3----------------------------------------release the 5th fret on the

D--5-----------------------------5----------------------------------3rd (G) String

A-------------------------------------------------------------------

E-------------------------------------------------------------------

Repeat Chord progression and riff once more

SOLO (use VERSE CHORDS) *= do surf type picking on that note (lengths may vary)

G F C G F C G

E------------------------------------------------------------------------------

B-----7--7*---6----------5----------------------7--7*---6-----------5----------

G------------------7--7*------7*----5------------------------7--7*-------7*---5

D--5------------------------------------------5--------------------------------

A------------------------------------------------------------------------------

E------------------------------------------------------------------------------

For the next part, continue using the VERSE CHORDS

To End that part, the following progression is used

EACH CHORD IS STRUMMED ONCE FOR EVERY TIME IT IS PUT DOWN

C F G F F G F C The final C chord goes straight into the Chorus

Those chords are played in the end as well

-------------------------------------------------------------------------------

Get this song at:  amazon.com sheetmusicplus.com

Share your thoughts

0 Comments found